ISO-10303-21;
HEADER;
FILE_DESCRIPTION (( 'STEP AP214' ),
    '1' );
FILE_NAME ('6288651.STEP',
    '2025-02-17T08:00:52',
    ( '' ),
    ( '' ),
    'SwSTEP 2.0',
    'SolidWorks 2024',
    '' );
FILE_SCHEMA (( 'AUTOMOTIVE_DESIGN' ));
ENDSEC;

DATA;
#1 = ORIENTED_EDGE ( 'NONE', *, *, #106, .F. ) ;
#2 =( GEOMETRIC_REPRESENTATION_CONTEXT ( 3 ) GLOBAL_UNCERTAINTY_ASSIGNED_CONTEXT ( ( #29 ) ) GLOBAL_UNIT_ASSIGNED_CONTEXT ( ( #110, #25, #120 ) ) REPRESENTATION_CONTEXT ( 'NONE', 'WORKASPACE' ) );
#3 = ADVANCED_FACE ( 'NONE', ( #96 ), #108, .T. ) ;
#4 = CARTESIAN_POINT ( 'NONE',  ( 7.191724035989500052, 19.73015725710697410, -150.0000000000000000 ) ) ;
#5 = DIRECTION ( 'NONE',  ( -1.000000000000000000, 0.000000000000000000, 0.000000000000000000 ) ) ;
#6 = EDGE_CURVE ( 'NONE', #118, #53, #103, .T. ) ;
#7 = EDGE_LOOP ( 'NONE', ( #12, #116 ) ) ;
#8 = ORIENTED_EDGE ( 'NONE', *, *, #6, .T. ) ;
#9 = CARTESIAN_POINT ( 'NONE',  ( 0.000000000000000000, 0.000000000000000000, 150.0000000000000000 ) ) ;
#10 = ORIENTED_EDGE ( 'NONE', *, *, #121, .T. ) ;
#11 = EDGE_CURVE ( 'NONE', #53, #107, #98, .T. ) ;
#12 = ORIENTED_EDGE ( 'NONE', *, *, #57, .F. ) ;
#13 = ORIENTED_EDGE ( 'NONE', *, *, #121, .F. ) ;
#14 = PRODUCT ( '6288651', '6288651', '', ( #32 ) ) ;
#15 = DIRECTION ( 'NONE',  ( 1.000000000000000000, 0.000000000000000000, 0.000000000000000000 ) ) ;
#16 = AXIS2_PLACEMENT_3D ( 'NONE', #4, #123, #31 ) ;
#17 = CARTESIAN_POINT ( 'NONE',  ( -25.00000000000000000, 0.000000000000000000, 150.0000000000000000 ) ) ;
#18 = PRODUCT_DEFINITION_SHAPE ( 'NONE', 'NONE',  #67 ) ;
#19 = ORIENTED_EDGE ( 'NONE', *, *, #106, .T. ) ;
#20 = ADVANCED_FACE ( 'NONE', ( #60 ), #46, .T. ) ;
#21 = DIRECTION ( 'NONE',  ( -0.000000000000000000, -0.000000000000000000, -1.000000000000000000 ) ) ;
#22 = UNCERTAINTY_MEASURE_WITH_UNIT (LENGTH_MEASURE( 1.000000000000000082E-05 ), #33, 'distance_accuracy_value', 'NONE');
#23 = DIRECTION ( 'NONE',  ( 0.000000000000000000, 0.000000000000000000, 1.000000000000000000 ) ) ;
#24 = SHAPE_DEFINITION_REPRESENTATION ( #18, #93 ) ;
#25 =( NAMED_UNIT ( * ) PLANE_ANGLE_UNIT ( ) SI_UNIT ( $, .RADIAN. ) );
#26 = DIRECTION ( 'NONE',  ( 0.000000000000000000, 0.000000000000000000, 1.000000000000000000 ) ) ;
#27 = DIRECTION ( 'NONE',  ( 1.000000000000000000, 0.000000000000000000, 0.000000000000000000 ) ) ;
#28 = DIRECTION ( 'NONE',  ( 1.000000000000000000, 0.000000000000000000, 0.000000000000000000 ) ) ;
#29 = UNCERTAINTY_MEASURE_WITH_UNIT (LENGTH_MEASURE( 1.000000000000000082E-05 ), #110, 'distance_accuracy_value', 'NONE');
#30 = SURFACE_STYLE_FILL_AREA ( #47 ) ;
#31 = DIRECTION ( 'NONE',  ( 1.000000000000000000, 0.000000000000000000, -0.000000000000000000 ) ) ;
#32 = PRODUCT_CONTEXT ( 'NONE', #73, 'mechanical' ) ;
#33 =( LENGTH_UNIT ( ) NAMED_UNIT ( * ) SI_UNIT ( .MILLI., .METRE. ) );
#34 = EDGE_LOOP ( 'NONE', ( #19, #8 ) ) ;
#35 = DIRECTION ( 'NONE',  ( 1.000000000000000000, 0.000000000000000000, 0.000000000000000000 ) ) ;
#36 = CLOSED_SHELL ( 'NONE', ( #86, #20, #77, #3 ) ) ;
#37 = CARTESIAN_POINT ( 'NONE',  ( 0.000000000000000000, 0.000000000000000000, 150.0000000000000000 ) ) ;
#38 = MECHANICAL_DESIGN_GEOMETRIC_PRESENTATION_REPRESENTATION (  '', ( #95 ), #124 ) ;
#39 = DIRECTION ( 'NONE',  ( -0.000000000000000000, -0.000000000000000000, -1.000000000000000000 ) ) ;
#40 = FACE_OUTER_BOUND ( 'NONE', #88, .T. ) ;
#41 = SURFACE_SIDE_STYLE ('',( #30 ) ) ;
#42 = PRESENTATION_STYLE_ASSIGNMENT (( #61 ) ) ;
#43 = VECTOR ( 'NONE', #99, 1000.000000000000000 ) ;
#44 = CIRCLE ( 'NONE', #72, 25.00000000000000000 ) ;
#45 = ORIENTED_EDGE ( 'NONE', *, *, #57, .T. ) ;
#46 = PLANE ( 'NONE',  #48 ) ;
#47 = FILL_AREA_STYLE ('',( #49 ) ) ;
#48 = AXIS2_PLACEMENT_3D ( 'NONE', #69, #70, #105 ) ;
#49 = FILL_AREA_STYLE_COLOUR ( '', #92 ) ;
#50 = CARTESIAN_POINT ( 'NONE',  ( 25.00000000000000000, 3.061616997868383043E-15, 150.0000000000000000 ) ) ;
#51 = PRESENTATION_LAYER_ASSIGNMENT (  '', '', ( #95 ) ) ;
#52 = CIRCLE ( 'NONE', #114, 25.00000000000000000 ) ;
#53 = VERTEX_POINT ( 'NONE', #17 ) ;
#54 = AXIS2_PLACEMENT_3D ( 'NONE', #76, #39, #5 ) ;
#55 = CARTESIAN_POINT ( 'NONE',  ( 0.000000000000000000, 0.000000000000000000, -150.0000000000000000 ) ) ;
#56 = FACE_OUTER_BOUND ( 'NONE', #7, .T. ) ;
#57 = EDGE_CURVE ( 'NONE', #107, #109, #111, .T. ) ;
#58 = ORIENTED_EDGE ( 'NONE', *, *, #63, .T. ) ;
#59 = ORIENTED_EDGE ( 'NONE', *, *, #6, .F. ) ;
#60 = FACE_OUTER_BOUND ( 'NONE', #34, .T. ) ;
#61 = SURFACE_STYLE_USAGE ( .BOTH. , #41 ) ;
#62 = VECTOR ( 'NONE', #21, 1000.000000000000000 ) ;
#63 = EDGE_CURVE ( 'NONE', #109, #107, #44, .T. ) ;
#64 = CARTESIAN_POINT ( 'NONE',  ( 25.00000000000000000, 3.061616997868383043E-15, -150.0000000000000000 ) ) ;
#65 = APPLICATION_CONTEXT ( 'automotive_design' ) ;
#66 = PRODUCT_DEFINITION_CONTEXT ( 'detailed design', #65, 'design' ) ;
#67 = PRODUCT_DEFINITION ( 'UNKNOWN', '', #74, #66 ) ;
#68 = AXIS2_PLACEMENT_3D ( 'NONE', #9, #26, #28 ) ;
#69 = CARTESIAN_POINT ( 'NONE',  ( 7.191724035989500052, 19.73015725710697410, 150.0000000000000000 ) ) ;
#70 = DIRECTION ( 'NONE',  ( 0.000000000000000000, 0.000000000000000000, 1.000000000000000000 ) ) ;
#71 = ORIENTED_EDGE ( 'NONE', *, *, #11, .F. ) ;
#72 = AXIS2_PLACEMENT_3D ( 'NONE', #79, #117, #27 ) ;
#73 = APPLICATION_CONTEXT ( 'automotive_design' ) ;
#74 = PRODUCT_DEFINITION_FORMATION_WITH_SPECIFIED_SOURCE ( 'ANY', '', #14, .NOT_KNOWN. ) ;
#75 = CYLINDRICAL_SURFACE ( 'NONE', #54, 25.00000000000000000 ) ;
#76 = CARTESIAN_POINT ( 'NONE',  ( 0.000000000000000000, 0.000000000000000000, 150.0000000000000000 ) ) ;
#77 = ADVANCED_FACE ( 'NONE', ( #56 ), #100, .F. ) ;
#78 = DIRECTION ( 'NONE',  ( -0.000000000000000000, -0.000000000000000000, -1.000000000000000000 ) ) ;
#79 = CARTESIAN_POINT ( 'NONE',  ( 0.000000000000000000, 0.000000000000000000, -150.0000000000000000 ) ) ;
#80 = MANIFOLD_SOLID_BREP ( 'DeleteFace1', #36 ) ;
#81 = ORIENTED_EDGE ( 'NONE', *, *, #11, .T. ) ;
#82 = CARTESIAN_POINT ( 'NONE',  ( -25.00000000000000000, 0.000000000000000000, 150.0000000000000000 ) ) ;
#83 =( NAMED_UNIT ( * ) SI_UNIT ( $, .STERADIAN. ) SOLID_ANGLE_UNIT ( ) );
#84 = CARTESIAN_POINT ( 'NONE',  ( 25.00000000000000000, 3.061616997868383043E-15, 150.0000000000000000 ) ) ;
#85 = CARTESIAN_POINT ( 'NONE',  ( -25.00000000000000000, 0.000000000000000000, -150.0000000000000000 ) ) ;
#86 = ADVANCED_FACE ( 'NONE', ( #40 ), #75, .T. ) ;
#87 = DIRECTION ( 'NONE',  ( 0.000000000000000000, 0.000000000000000000, 1.000000000000000000 ) ) ;
#88 = EDGE_LOOP ( 'NONE', ( #59, #10, #58, #71 ) ) ;
#89 = DIRECTION ( 'NONE',  ( 0.000000000000000000, 0.000000000000000000, 1.000000000000000000 ) ) ;
#90 = CARTESIAN_POINT ( 'NONE',  ( 0.000000000000000000, 0.000000000000000000, 0.000000000000000000 ) ) ;
#91 =( NAMED_UNIT ( * ) PLANE_ANGLE_UNIT ( ) SI_UNIT ( $, .RADIAN. ) );
#92 = COLOUR_RGB ( '',0.7921568627450980005, 0.8196078431372548767, 0.9333333333333333481 ) ;
#93 = ADVANCED_BREP_SHAPE_REPRESENTATION ( '6288651', ( #80, #101 ), #2 ) ;
#94 = PRODUCT_RELATED_PRODUCT_CATEGORY ( 'part', '', ( #14 ) ) ;
#95 = STYLED_ITEM ( 'NONE', ( #42 ), #80 ) ;
#96 = FACE_OUTER_BOUND ( 'NONE', #97, .T. ) ;
#97 = EDGE_LOOP ( 'NONE', ( #13, #1, #81, #45 ) ) ;
#98 = LINE ( 'NONE', #82, #62 ) ;
#99 = DIRECTION ( 'NONE',  ( -0.000000000000000000, -0.000000000000000000, -1.000000000000000000 ) ) ;
#100 = PLANE ( 'NONE',  #16 ) ;
#101 = AXIS2_PLACEMENT_3D ( 'NONE', #90, #89, #122 ) ;
#102 = APPLICATION_PROTOCOL_DEFINITION ( 'draft international standard', 'automotive_design', 1998, #73 ) ;
#103 = CIRCLE ( 'NONE', #68, 25.00000000000000000 ) ;
#104 = AXIS2_PLACEMENT_3D ( 'NONE', #55, #87, #35 ) ;
#105 = DIRECTION ( 'NONE',  ( 1.000000000000000000, 0.000000000000000000, -0.000000000000000000 ) ) ;
#106 = EDGE_CURVE ( 'NONE', #53, #118, #52, .T. ) ;
#107 = VERTEX_POINT ( 'NONE', #85 ) ;
#108 = CYLINDRICAL_SURFACE ( 'NONE', #115, 25.00000000000000000 ) ;
#109 = VERTEX_POINT ( 'NONE', #64 ) ;
#110 =( LENGTH_UNIT ( ) NAMED_UNIT ( * ) SI_UNIT ( .MILLI., .METRE. ) );
#111 = CIRCLE ( 'NONE', #104, 25.00000000000000000 ) ;
#112 = APPLICATION_PROTOCOL_DEFINITION ( 'draft international standard', 'automotive_design', 1998, #65 ) ;
#113 = LINE ( 'NONE', #50, #43 ) ;
#114 = AXIS2_PLACEMENT_3D ( 'NONE', #119, #23, #15 ) ;
#115 = AXIS2_PLACEMENT_3D ( 'NONE', #37, #78, #125 ) ;
#116 = ORIENTED_EDGE ( 'NONE', *, *, #63, .F. ) ;
#117 = DIRECTION ( 'NONE',  ( 0.000000000000000000, 0.000000000000000000, 1.000000000000000000 ) ) ;
#118 = VERTEX_POINT ( 'NONE', #84 ) ;
#119 = CARTESIAN_POINT ( 'NONE',  ( 0.000000000000000000, 0.000000000000000000, 150.0000000000000000 ) ) ;
#120 =( NAMED_UNIT ( * ) SI_UNIT ( $, .STERADIAN. ) SOLID_ANGLE_UNIT ( ) );
#121 = EDGE_CURVE ( 'NONE', #118, #109, #113, .T. ) ;
#122 = DIRECTION ( 'NONE',  ( 1.000000000000000000, 0.000000000000000000, 0.000000000000000000 ) ) ;
#123 = DIRECTION ( 'NONE',  ( 0.000000000000000000, 0.000000000000000000, 1.000000000000000000 ) ) ;
#124 =( GEOMETRIC_REPRESENTATION_CONTEXT ( 3 ) GLOBAL_UNCERTAINTY_ASSIGNED_CONTEXT ( ( #22 ) ) GLOBAL_UNIT_ASSIGNED_CONTEXT ( ( #33, #91, #83 ) ) REPRESENTATION_CONTEXT ( 'NONE', 'WORKASPACE' ) );
#125 = DIRECTION ( 'NONE',  ( -1.000000000000000000, 0.000000000000000000, 0.000000000000000000 ) ) ;
ENDSEC;
END-ISO-10303-21;
