ISO-10303-21;
HEADER;
FILE_DESCRIPTION(('CoCreate Modeling STEP Export'),'2;1');
FILE_NAME('5019350.stp','2019-04-23T10:16:55',(''),(''),
'CoCreate Modeling STEP processor for AP214 (Solid Model)',
'CoCreate Modeling 16.00D  29-May-2009 (C) Parametric Technology GmbH',
'');
FILE_SCHEMA(('AUTOMOTIVE_DESIGN { 1 0 10303 214 1 1 1 1 }'));
ENDSEC;
DATA;
#10=CARTESIAN_POINT('',(0.,0.,0.));
#20=DIRECTION('',(0.,0.,1.));
#30=DIRECTION('',(1.,0.,-0.));
#40=AXIS2_PLACEMENT_3D('',#10,#20,#30);
#50=PLANE('',#40);
#60=CARTESIAN_POINT('',(30.,4.,0.));
#70=DIRECTION('',(0.,-1.,0.));
#80=VECTOR('',#70,1.);
#90=LINE('',#60,#80);
#100=CARTESIAN_POINT('',(30.,4.,0.));
#110=VERTEX_POINT('',#100);
#120=CARTESIAN_POINT('',(30.,0.,0.));
#130=VERTEX_POINT('',#120);
#140=EDGE_CURVE('',#110,#130,#90,.T.);
#150=ORIENTED_EDGE('',*,*,#140,.T.);
#160=CARTESIAN_POINT('',(0.,4.,0.));
#170=DIRECTION('',(1.,0.,0.));
#180=VECTOR('',#170,1.);
#190=LINE('',#160,#180);
#200=CARTESIAN_POINT('',(0.,4.,0.));
#210=VERTEX_POINT('',#200);
#220=EDGE_CURVE('',#210,#110,#190,.T.);
#230=ORIENTED_EDGE('',*,*,#220,.T.);
#240=CARTESIAN_POINT('',(0.,0.,0.));
#250=DIRECTION('',(0.,1.,0.));
#260=VECTOR('',#250,1.);
#270=LINE('',#240,#260);
#280=CARTESIAN_POINT('',(0.,0.,0.));
#290=VERTEX_POINT('',#280);
#300=EDGE_CURVE('',#290,#210,#270,.T.);
#310=ORIENTED_EDGE('',*,*,#300,.T.);
#320=CARTESIAN_POINT('',(30.,0.,0.));
#330=DIRECTION('',(-1.,0.,0.));
#340=VECTOR('',#330,1.);
#350=LINE('',#320,#340);
#360=EDGE_CURVE('',#130,#290,#350,.T.);
#370=ORIENTED_EDGE('',*,*,#360,.T.);
#380=EDGE_LOOP('',(#370,#310,#230,#150));
#390=FACE_OUTER_BOUND('',#380,.T.);
#400=ADVANCED_FACE('',(#390),#50,.F.);
#410=CARTESIAN_POINT('',(0.,0.,3000.));
#420=DIRECTION('',(0.,0.,1.));
#430=DIRECTION('',(1.,0.,-0.));
#440=AXIS2_PLACEMENT_3D('',#410,#420,#430);
#450=PLANE('',#440);
#460=CARTESIAN_POINT('',(30.,0.,3000.));
#470=DIRECTION('',(-1.,0.,0.));
#480=VECTOR('',#470,1.);
#490=LINE('',#460,#480);
#500=CARTESIAN_POINT('',(30.,0.,3000.));
#510=VERTEX_POINT('',#500);
#520=CARTESIAN_POINT('',(0.,0.,3000.));
#530=VERTEX_POINT('',#520);
#540=EDGE_CURVE('',#510,#530,#490,.T.);
#550=ORIENTED_EDGE('',*,*,#540,.F.);
#560=CARTESIAN_POINT('',(0.,0.,3000.));
#570=DIRECTION('',(0.,1.,0.));
#580=VECTOR('',#570,1.);
#590=LINE('',#560,#580);
#600=CARTESIAN_POINT('',(0.,4.,3000.));
#610=VERTEX_POINT('',#600);
#620=EDGE_CURVE('',#530,#610,#590,.T.);
#630=ORIENTED_EDGE('',*,*,#620,.F.);
#640=CARTESIAN_POINT('',(0.,4.,3000.));
#650=DIRECTION('',(1.,0.,0.));
#660=VECTOR('',#650,1.);
#670=LINE('',#640,#660);
#680=CARTESIAN_POINT('',(30.,4.,3000.));
#690=VERTEX_POINT('',#680);
#700=EDGE_CURVE('',#610,#690,#670,.T.);
#710=ORIENTED_EDGE('',*,*,#700,.F.);
#720=CARTESIAN_POINT('',(30.,4.,3000.));
#730=DIRECTION('',(0.,-1.,0.));
#740=VECTOR('',#730,1.);
#750=LINE('',#720,#740);
#760=EDGE_CURVE('',#690,#510,#750,.T.);
#770=ORIENTED_EDGE('',*,*,#760,.F.);
#780=EDGE_LOOP('',(#770,#710,#630,#550));
#790=FACE_OUTER_BOUND('',#780,.T.);
#800=ADVANCED_FACE('',(#790),#450,.T.);
#810=CARTESIAN_POINT('',(0.,0.,0.));
#820=DIRECTION('',(-1.,0.,0.));
#830=DIRECTION('',(0.,1.,0.));
#840=AXIS2_PLACEMENT_3D('',#810,#820,#830);
#850=PLANE('',#840);
#860=CARTESIAN_POINT('',(0.,4.,0.));
#870=DIRECTION('',(0.,0.,1.));
#880=VECTOR('',#870,1.);
#890=LINE('',#860,#880);
#900=EDGE_CURVE('',#210,#610,#890,.T.);
#910=ORIENTED_EDGE('',*,*,#900,.F.);
#920=ORIENTED_EDGE('',*,*,#620,.T.);
#930=CARTESIAN_POINT('',(0.,0.,0.));
#940=DIRECTION('',(0.,0.,1.));
#950=VECTOR('',#940,1.);
#960=LINE('',#930,#950);
#970=EDGE_CURVE('',#290,#530,#960,.T.);
#980=ORIENTED_EDGE('',*,*,#970,.T.);
#990=ORIENTED_EDGE('',*,*,#300,.F.);
#1000=EDGE_LOOP('',(#990,#980,#920,#910));
#1010=FACE_OUTER_BOUND('',#1000,.T.);
#1020=ADVANCED_FACE('',(#1010),#850,.T.);
#1030=CARTESIAN_POINT('',(30.,0.,0.));
#1040=DIRECTION('',(0.,-1.,0.));
#1050=DIRECTION('',(-1.,-0.,0.));
#1060=AXIS2_PLACEMENT_3D('',#1030,#1040,#1050);
#1070=PLANE('',#1060);
#1080=ORIENTED_EDGE('',*,*,#970,.F.);
#1090=ORIENTED_EDGE('',*,*,#540,.T.);
#1100=CARTESIAN_POINT('',(30.,0.,0.));
#1110=DIRECTION('',(0.,0.,1.));
#1120=VECTOR('',#1110,1.);
#1130=LINE('',#1100,#1120);
#1140=EDGE_CURVE('',#130,#510,#1130,.T.);
#1150=ORIENTED_EDGE('',*,*,#1140,.T.);
#1160=ORIENTED_EDGE('',*,*,#360,.F.);
#1170=EDGE_LOOP('',(#1160,#1150,#1090,#1080));
#1180=FACE_OUTER_BOUND('',#1170,.T.);
#1190=ADVANCED_FACE('',(#1180),#1070,.T.);
#1200=CARTESIAN_POINT('',(30.,4.,0.));
#1210=DIRECTION('',(1.,0.,-0.));
#1220=DIRECTION('',(0.,-1.,0.));
#1230=AXIS2_PLACEMENT_3D('',#1200,#1210,#1220);
#1240=PLANE('',#1230);
#1250=ORIENTED_EDGE('',*,*,#1140,.F.);
#1260=ORIENTED_EDGE('',*,*,#760,.T.);
#1270=CARTESIAN_POINT('',(30.,4.,0.));
#1280=DIRECTION('',(0.,0.,1.));
#1290=VECTOR('',#1280,1.);
#1300=LINE('',#1270,#1290);
#1310=EDGE_CURVE('',#110,#690,#1300,.T.);
#1320=ORIENTED_EDGE('',*,*,#1310,.T.);
#1330=ORIENTED_EDGE('',*,*,#140,.F.);
#1340=EDGE_LOOP('',(#1330,#1320,#1260,#1250));
#1350=FACE_OUTER_BOUND('',#1340,.T.);
#1360=ADVANCED_FACE('',(#1350),#1240,.T.);
#1370=CARTESIAN_POINT('',(0.,4.,0.));
#1380=DIRECTION('',(0.,1.,0.));
#1390=DIRECTION('',(1.,-0.,0.));
#1400=AXIS2_PLACEMENT_3D('',#1370,#1380,#1390);
#1410=PLANE('',#1400);
#1420=ORIENTED_EDGE('',*,*,#1310,.F.);
#1430=ORIENTED_EDGE('',*,*,#700,.T.);
#1440=ORIENTED_EDGE('',*,*,#900,.T.);
#1450=ORIENTED_EDGE('',*,*,#220,.F.);
#1460=EDGE_LOOP('',(#1450,#1440,#1430,#1420));
#1470=FACE_OUTER_BOUND('',#1460,.T.);
#1480=ADVANCED_FACE('',(#1470),#1410,.T.);
#1490=CLOSED_SHELL('',(#1020,#1190,#1360,#1480,#800,#400));
#1500=MANIFOLD_SOLID_BREP('',#1490);
#1510=CARTESIAN_POINT('',(0.,0.,0.));
#1520=DIRECTION('',(0.,0.,1.));
#1530=DIRECTION('',(1.,0.,0.));
#1540=AXIS2_PLACEMENT_3D('',#1510,#1520,#1530);
#1550=APPLICATION_CONTEXT(' ');
#1560=APPLICATION_PROTOCOL_DEFINITION(' ','automotive_design',1998,#1550
);
#1570=PRODUCT_CONTEXT('',#1550,'mechanical');
#1580=PRODUCT_DEFINITION_CONTEXT('part definition',#1550,'design');
#1590=PRODUCT('1','1','',(#1570));
#1600=PRODUCT_RELATED_PRODUCT_CATEGORY('part',' ',(#1590));
#1610=PRODUCT_DEFINITION_FORMATION_WITH_SPECIFIED_SOURCE('','',#1590,
.BOUGHT.);
#1620=PRODUCT_DEFINITION('',' ',#1610,#1580);
#1630=PRODUCT_DEFINITION_SHAPE('','',#1620);
#1640=DIMENSIONAL_EXPONENTS(1.,0.,0.,0.,0.,0.,0.);
#1650=DIMENSIONAL_EXPONENTS(0.,0.,0.,0.,0.,0.,0.);
#1660=DIMENSIONAL_EXPONENTS(0.,0.,0.,0.,0.,0.,0.);
#1670=(LENGTH_UNIT() NAMED_UNIT(*) SI_UNIT(.MILLI.,.METRE.));
#1680=(NAMED_UNIT(*) PLANE_ANGLE_UNIT() SI_UNIT($,.RADIAN.));
#1690=(NAMED_UNIT(*) SI_UNIT($,.STERADIAN.) SOLID_ANGLE_UNIT());
#1700=(GEOMETRIC_REPRESENTATION_CONTEXT(3) 
GLOBAL_UNCERTAINTY_ASSIGNED_CONTEXT((#1710)) 
GLOBAL_UNIT_ASSIGNED_CONTEXT((#1670,#1680,#1690)) REPRESENTATION_CONTEXT
('',''));
#1710=UNCERTAINTY_MEASURE_WITH_UNIT(LENGTH_MEASURE(1.E-6),#1670,
'distance_accuracy_value','maximum gap value');
#1720=ADVANCED_BREP_SHAPE_REPRESENTATION('',(#1540,#1500),#1700);
#1730=SHAPE_DEFINITION_REPRESENTATION(#1630,#1720);
#1740=COLOUR_RGB('',0.600000023841858,0.600000023841858,
0.600000023841858);
#1750=FILL_AREA_STYLE_COLOUR('',#1740);
#1760=FILL_AREA_STYLE('',(#1750));
#1770=SURFACE_STYLE_FILL_AREA(#1760);
#1780=SURFACE_SIDE_STYLE('',(#1770));
#1790=SURFACE_STYLE_USAGE(.BOTH.,#1780);
#1800=PRESENTATION_STYLE_ASSIGNMENT((#1790));
#1810=STYLED_ITEM('',(#1800),#1500);
#1820=DRAUGHTING_MODEL('',(#1810),#1700);
ENDSEC;
END-ISO-10303-21;
