ISO-10303-21;
HEADER;
FILE_DESCRIPTION (( 'STEP AP214' ),
    '1' );
FILE_NAME ('3141540.STEP',
    '2025-01-28T08:11:26',
    ( '' ),
    ( '' ),
    'SwSTEP 2.0',
    'SolidWorks 2024',
    '' );
FILE_SCHEMA (( 'AUTOMOTIVE_DESIGN' ));
ENDSEC;

DATA;
#1 = VERTEX_POINT ( 'NONE', #99 ) ;
#2 = DIRECTION ( 'NONE',  ( 0.000000000000000000, 0.000000000000000000, 1.000000000000000000 ) ) ;
#3 = EDGE_CURVE ( 'NONE', #62, #30, #93, .T. ) ;
#4 = FACE_OUTER_BOUND ( 'NONE', #53, .T. ) ;
#5 = DIRECTION ( 'NONE',  ( 0.000000000000000000, -0.000000000000000000, 1.000000000000000000 ) ) ;
#6 = AXIS2_PLACEMENT_3D ( 'NONE', #34, #31, #13 ) ;
#7 = ORIENTED_EDGE ( 'NONE', *, *, #83, .T. ) ;
#8 = PRESENTATION_LAYER_ASSIGNMENT (  '', '', ( #113 ) ) ;
#9 =( LENGTH_UNIT ( ) NAMED_UNIT ( * ) SI_UNIT ( .MILLI., .METRE. ) );
#10 = ADVANCED_BREP_SHAPE_REPRESENTATION ( '3141540', ( #105, #61 ), #49 ) ;
#11 = PRESENTATION_STYLE_ASSIGNMENT (( #86 ) ) ;
#12 = VECTOR ( 'NONE', #79, 1000.000000000000000 ) ;
#13 = DIRECTION ( 'NONE',  ( 0.000000000000000000, 0.000000000000000000, 1.000000000000000000 ) ) ;
#14 = EDGE_CURVE ( 'NONE', #1, #62, #45, .T. ) ;
#15 = ORIENTED_EDGE ( 'NONE', *, *, #83, .F. ) ;
#16 = DIRECTION ( 'NONE',  ( 0.000000000000000000, 1.000000000000000000, 0.000000000000000000 ) ) ;
#17 = FACE_OUTER_BOUND ( 'NONE', #71, .T. ) ;
#18 =( NAMED_UNIT ( * ) SI_UNIT ( $, .STERADIAN. ) SOLID_ANGLE_UNIT ( ) );
#19 = PRODUCT_DEFINITION_SHAPE ( 'NONE', 'NONE',  #115 ) ;
#20 = ORIENTED_EDGE ( 'NONE', *, *, #3, .T. ) ;
#21 = CLOSED_SHELL ( 'NONE', ( #35, #59, #39, #88 ) ) ;
#22 = MECHANICAL_DESIGN_GEOMETRIC_PRESENTATION_REPRESENTATION (  '', ( #113 ), #120 ) ;
#23 = EDGE_LOOP ( 'NONE', ( #97, #40 ) ) ;
#24 = DIRECTION ( 'NONE',  ( 0.000000000000000000, 1.000000000000000000, 0.000000000000000000 ) ) ;
#25 = ORIENTED_EDGE ( 'NONE', *, *, #28, .T. ) ;
#26 = LINE ( 'NONE', #80, #60 ) ;
#27 = DIRECTION ( 'NONE',  ( 0.000000000000000000, 0.000000000000000000, -1.000000000000000000 ) ) ;
#28 = EDGE_CURVE ( 'NONE', #30, #62, #74, .T. ) ;
#29 =( LENGTH_UNIT ( ) NAMED_UNIT ( * ) SI_UNIT ( .MILLI., .METRE. ) );
#30 = VERTEX_POINT ( 'NONE', #81 ) ;
#31 = DIRECTION ( 'NONE',  ( 0.000000000000000000, 1.000000000000000000, 0.000000000000000000 ) ) ;
#32 = DIRECTION ( 'NONE',  ( 0.000000000000000000, -0.000000000000000000, 1.000000000000000000 ) ) ;
#33 = CARTESIAN_POINT ( 'NONE',  ( 6.123233995736766282E-16, 1000.000000000000000, 5.000000000000000000 ) ) ;
#34 = CARTESIAN_POINT ( 'NONE',  ( 0.000000000000000000, 1000.000000000000000, 0.000000000000000000 ) ) ;
#35 = ADVANCED_FACE ( 'NONE', ( #4 ), #100, .T. ) ;
#36 = AXIS2_PLACEMENT_3D ( 'NONE', #75, #117, #63 ) ;
#37 = PRODUCT_DEFINITION_FORMATION_WITH_SPECIFIED_SOURCE ( 'ANY', '', #51, .NOT_KNOWN. ) ;
#38 = FILL_AREA_STYLE_COLOUR ( '', #70 ) ;
#39 = ADVANCED_FACE ( 'NONE', ( #108 ), #91, .T. ) ;
#40 = ORIENTED_EDGE ( 'NONE', *, *, #3, .F. ) ;
#41 = ORIENTED_EDGE ( 'NONE', *, *, #46, .F. ) ;
#42 = CYLINDRICAL_SURFACE ( 'NONE', #57, 5.000000000000000000 ) ;
#43 = ORIENTED_EDGE ( 'NONE', *, *, #50, .F. ) ;
#44 = CARTESIAN_POINT ( 'NONE',  ( 0.000000000000000000, 1000.000000000000000, 0.000000000000000000 ) ) ;
#45 = LINE ( 'NONE', #33, #12 ) ;
#46 = EDGE_CURVE ( 'NONE', #89, #1, #104, .T. ) ;
#47 = PRODUCT_RELATED_PRODUCT_CATEGORY ( 'part', '', ( #51 ) ) ;
#48 = UNCERTAINTY_MEASURE_WITH_UNIT (LENGTH_MEASURE( 1.000000000000000082E-05 ), #29, 'distance_accuracy_value', 'NONE');
#49 =( GEOMETRIC_REPRESENTATION_CONTEXT ( 3 ) GLOBAL_UNCERTAINTY_ASSIGNED_CONTEXT ( ( #48 ) ) GLOBAL_UNIT_ASSIGNED_CONTEXT ( ( #29, #94, #103 ) ) REPRESENTATION_CONTEXT ( 'NONE', 'WORKASPACE' ) );
#50 = EDGE_CURVE ( 'NONE', #89, #30, #26, .T. ) ;
#51 = PRODUCT ( '3141540', '3141540', '', ( #84 ) ) ;
#52 = AXIS2_PLACEMENT_3D ( 'NONE', #107, #16, #5 ) ;
#53 = EDGE_LOOP ( 'NONE', ( #15, #72, #20, #43 ) ) ;
#54 = DIRECTION ( 'NONE',  ( 0.000000000000000000, 0.000000000000000000, -1.000000000000000000 ) ) ;
#55 = ORIENTED_EDGE ( 'NONE', *, *, #50, .T. ) ;
#56 = DIRECTION ( 'NONE',  ( -0.000000000000000000, -1.000000000000000000, -0.000000000000000000 ) ) ;
#57 = AXIS2_PLACEMENT_3D ( 'NONE', #82, #121, #27 ) ;
#58 = SURFACE_SIDE_STYLE ('',( #124 ) ) ;
#59 = ADVANCED_FACE ( 'NONE', ( #17 ), #42, .T. ) ;
#60 = VECTOR ( 'NONE', #66, 1000.000000000000000 ) ;
#61 = AXIS2_PLACEMENT_3D ( 'NONE', #102, #69, #116 ) ;
#62 = VERTEX_POINT ( 'NONE', #67 ) ;
#63 = DIRECTION ( 'NONE',  ( 0.000000000000000000, 0.000000000000000000, 1.000000000000000000 ) ) ;
#64 = DIRECTION ( 'NONE',  ( 0.000000000000000000, 0.000000000000000000, 1.000000000000000000 ) ) ;
#65 = EDGE_LOOP ( 'NONE', ( #96, #7 ) ) ;
#66 = DIRECTION ( 'NONE',  ( -0.000000000000000000, -1.000000000000000000, -0.000000000000000000 ) ) ;
#67 = CARTESIAN_POINT ( 'NONE',  ( 6.123233995736766282E-16, 0.000000000000000000, 5.000000000000000000 ) ) ;
#68 = CIRCLE ( 'NONE', #6, 5.000000000000000000 ) ;
#69 = DIRECTION ( 'NONE',  ( 0.000000000000000000, 0.000000000000000000, 1.000000000000000000 ) ) ;
#70 = COLOUR_RGB ( '',0.7921568627450980005, 0.8196078431372548767, 0.9333333333333333481 ) ;
#71 = EDGE_LOOP ( 'NONE', ( #92, #41, #55, #25 ) ) ;
#72 = ORIENTED_EDGE ( 'NONE', *, *, #14, .T. ) ;
#73 = CARTESIAN_POINT ( 'NONE',  ( 0.000000000000000000, 1000.000000000000000, -5.000000000000000000 ) ) ;
#74 = CIRCLE ( 'NONE', #36, 5.000000000000000000 ) ;
#75 = CARTESIAN_POINT ( 'NONE',  ( 0.000000000000000000, 0.000000000000000000, 0.000000000000000000 ) ) ;
#76 = FACE_OUTER_BOUND ( 'NONE', #23, .T. ) ;
#77 =( NAMED_UNIT ( * ) PLANE_ANGLE_UNIT ( ) SI_UNIT ( $, .RADIAN. ) );
#78 = AXIS2_PLACEMENT_3D ( 'NONE', #90, #118, #32 ) ;
#79 = DIRECTION ( 'NONE',  ( -0.000000000000000000, -1.000000000000000000, -0.000000000000000000 ) ) ;
#80 = CARTESIAN_POINT ( 'NONE',  ( 0.000000000000000000, 1000.000000000000000, -5.000000000000000000 ) ) ;
#81 = CARTESIAN_POINT ( 'NONE',  ( 0.000000000000000000, 0.000000000000000000, -5.000000000000000000 ) ) ;
#82 = CARTESIAN_POINT ( 'NONE',  ( 0.000000000000000000, 1000.000000000000000, 0.000000000000000000 ) ) ;
#83 = EDGE_CURVE ( 'NONE', #1, #89, #68, .T. ) ;
#84 = PRODUCT_CONTEXT ( 'NONE', #110, 'mechanical' ) ;
#85 = APPLICATION_PROTOCOL_DEFINITION ( 'draft international standard', 'automotive_design', 1998, #110 ) ;
#86 = SURFACE_STYLE_USAGE ( .BOTH. , #58 ) ;
#87 = AXIS2_PLACEMENT_3D ( 'NONE', #44, #119, #64 ) ;
#88 = ADVANCED_FACE ( 'NONE', ( #76 ), #98, .F. ) ;
#89 = VERTEX_POINT ( 'NONE', #73 ) ;
#90 = CARTESIAN_POINT ( 'NONE',  ( 0.000000000000000000, 0.000000000000000000, 0.000000000000000000 ) ) ;
#91 = PLANE ( 'NONE',  #52 ) ;
#92 = ORIENTED_EDGE ( 'NONE', *, *, #14, .F. ) ;
#93 = CIRCLE ( 'NONE', #101, 5.000000000000000000 ) ;
#94 =( NAMED_UNIT ( * ) PLANE_ANGLE_UNIT ( ) SI_UNIT ( $, .RADIAN. ) );
#95 = APPLICATION_CONTEXT ( 'automotive_design' ) ;
#96 = ORIENTED_EDGE ( 'NONE', *, *, #46, .T. ) ;
#97 = ORIENTED_EDGE ( 'NONE', *, *, #28, .F. ) ;
#98 = PLANE ( 'NONE',  #78 ) ;
#99 = CARTESIAN_POINT ( 'NONE',  ( 6.123233995736766282E-16, 1000.000000000000000, 5.000000000000000000 ) ) ;
#100 = CYLINDRICAL_SURFACE ( 'NONE', #112, 5.000000000000000000 ) ;
#101 = AXIS2_PLACEMENT_3D ( 'NONE', #106, #24, #2 ) ;
#102 = CARTESIAN_POINT ( 'NONE',  ( 0.000000000000000000, 0.000000000000000000, 0.000000000000000000 ) ) ;
#103 =( NAMED_UNIT ( * ) SI_UNIT ( $, .STERADIAN. ) SOLID_ANGLE_UNIT ( ) );
#104 = CIRCLE ( 'NONE', #87, 5.000000000000000000 ) ;
#105 = MANIFOLD_SOLID_BREP ( 'Aufsatz-Linear austragen1', #21 ) ;
#106 = CARTESIAN_POINT ( 'NONE',  ( 0.000000000000000000, 0.000000000000000000, 0.000000000000000000 ) ) ;
#107 = CARTESIAN_POINT ( 'NONE',  ( 0.000000000000000000, 1000.000000000000000, 0.000000000000000000 ) ) ;
#108 = FACE_OUTER_BOUND ( 'NONE', #65, .T. ) ;
#109 = CARTESIAN_POINT ( 'NONE',  ( 0.000000000000000000, 1000.000000000000000, 0.000000000000000000 ) ) ;
#110 = APPLICATION_CONTEXT ( 'automotive_design' ) ;
#111 = UNCERTAINTY_MEASURE_WITH_UNIT (LENGTH_MEASURE( 1.000000000000000082E-05 ), #9, 'distance_accuracy_value', 'NONE');
#112 = AXIS2_PLACEMENT_3D ( 'NONE', #109, #56, #54 ) ;
#113 = STYLED_ITEM ( 'NONE', ( #11 ), #105 ) ;
#114 = SHAPE_DEFINITION_REPRESENTATION ( #19, #10 ) ;
#115 = PRODUCT_DEFINITION ( 'UNKNOWN', '', #37, #125 ) ;
#116 = DIRECTION ( 'NONE',  ( 1.000000000000000000, 0.000000000000000000, 0.000000000000000000 ) ) ;
#117 = DIRECTION ( 'NONE',  ( 0.000000000000000000, 1.000000000000000000, 0.000000000000000000 ) ) ;
#118 = DIRECTION ( 'NONE',  ( 0.000000000000000000, 1.000000000000000000, 0.000000000000000000 ) ) ;
#119 = DIRECTION ( 'NONE',  ( 0.000000000000000000, 1.000000000000000000, 0.000000000000000000 ) ) ;
#120 =( GEOMETRIC_REPRESENTATION_CONTEXT ( 3 ) GLOBAL_UNCERTAINTY_ASSIGNED_CONTEXT ( ( #111 ) ) GLOBAL_UNIT_ASSIGNED_CONTEXT ( ( #9, #77, #18 ) ) REPRESENTATION_CONTEXT ( 'NONE', 'WORKASPACE' ) );
#121 = DIRECTION ( 'NONE',  ( -0.000000000000000000, -1.000000000000000000, -0.000000000000000000 ) ) ;
#122 = FILL_AREA_STYLE ('',( #38 ) ) ;
#123 = APPLICATION_PROTOCOL_DEFINITION ( 'draft international standard', 'automotive_design', 1998, #95 ) ;
#124 = SURFACE_STYLE_FILL_AREA ( #122 ) ;
#125 = PRODUCT_DEFINITION_CONTEXT ( 'detailed design', #95, 'design' ) ;
ENDSEC;
END-ISO-10303-21;
