ISO-10303-21;
HEADER;
FILE_DESCRIPTION (( 'STEP AP214' ),
    '1' );
FILE_NAME ('2046582.STEP',
    '2025-01-24T14:26:59',
    ( '' ),
    ( '' ),
    'SwSTEP 2.0',
    'SolidWorks 2024',
    '' );
FILE_SCHEMA (( 'AUTOMOTIVE_DESIGN' ));
ENDSEC;

DATA;
#1 = DIRECTION ( 'NONE',  ( -1.000000000000000000, -0.000000000000000000, -0.000000000000000000 ) ) ;
#2 = PRODUCT_DEFINITION ( 'UNKNOWN', '', #94, #135 ) ;
#3 = CARTESIAN_POINT ( 'NONE',  ( 25.00000000000000000, 0.000000000000000000, 0.000000000000000000 ) ) ;
#4 = APPLICATION_CONTEXT ( 'automotive_design' ) ;
#5 = ADVANCED_BREP_SHAPE_REPRESENTATION ( '2046582', ( #111, #195 ), #78 ) ;
#6 = LINE ( 'NONE', #147, #197 ) ;
#7 = DIRECTION ( 'NONE',  ( 0.000000000000000000, 0.000000000000000000, 1.000000000000000000 ) ) ;
#8 = CARTESIAN_POINT ( 'NONE',  ( -25.00000000000000000, 0.000000000000000000, 9.299999999999995381 ) ) ;
#9 =( NAMED_UNIT ( * ) PLANE_ANGLE_UNIT ( ) SI_UNIT ( $, .RADIAN. ) );
#10 = EDGE_CURVE ( 'NONE', #107, #168, #102, .T. ) ;
#11 = COLOUR_RGB ( '',0.7921568627450980005, 0.8196078431372548767, 0.9333333333333333481 ) ;
#12 = DIRECTION ( 'NONE',  ( -1.000000000000000000, -0.000000000000000000, -0.000000000000000000 ) ) ;
#13 = CARTESIAN_POINT ( 'NONE',  ( 25.00000000000000000, 0.000000000000000000, 8.300000000000000711 ) ) ;
#14 = ORIENTED_EDGE ( 'NONE', *, *, #166, .T. ) ;
#15 = DIRECTION ( 'NONE',  ( -1.000000000000000000, -0.000000000000000000, -0.000000000000000000 ) ) ;
#16 = ORIENTED_EDGE ( 'NONE', *, *, #171, .T. ) ;
#17 = EDGE_LOOP ( 'NONE', ( #152, #55, #180, #14 ) ) ;
#18 =( GEOMETRIC_REPRESENTATION_CONTEXT ( 3 ) GLOBAL_UNCERTAINTY_ASSIGNED_CONTEXT ( ( #116 ) ) GLOBAL_UNIT_ASSIGNED_CONTEXT ( ( #158, #79, #157 ) ) REPRESENTATION_CONTEXT ( 'NONE', 'WORKASPACE' ) );
#19 = CYLINDRICAL_SURFACE ( 'NONE', #153, 9.299999999999997158 ) ;
#20 = SURFACE_SIDE_STYLE ('',( #97 ) ) ;
#21 = DIRECTION ( 'NONE',  ( -1.000000000000000000, 0.000000000000000000, -0.000000000000000000 ) ) ;
#22 = PRODUCT_CONTEXT ( 'NONE', #126, 'mechanical' ) ;
#23 = DIRECTION ( 'NONE',  ( 0.000000000000000000, 0.000000000000000000, -1.000000000000000000 ) ) ;
#24 = CIRCLE ( 'NONE', #101, 9.299999999999995381 ) ;
#25 = AXIS2_PLACEMENT_3D ( 'NONE', #52, #12, #68 ) ;
#26 = ORIENTED_EDGE ( 'NONE', *, *, #176, .T. ) ;
#27 = VERTEX_POINT ( 'NONE', #13 ) ;
#28 = ORIENTED_EDGE ( 'NONE', *, *, #88, .F. ) ;
#29 = ORIENTED_EDGE ( 'NONE', *, *, #64, .T. ) ;
#30 = FACE_BOUND ( 'NONE', #194, .T. ) ;
#31 = DIRECTION ( 'NONE',  ( -1.000000000000000000, -0.000000000000000000, -0.000000000000000000 ) ) ;
#32 = PLANE ( 'NONE',  #113 ) ;
#33 = STYLED_ITEM ( 'NONE', ( #63 ), #111 ) ;
#34 = DIRECTION ( 'NONE',  ( -1.000000000000000000, -0.000000000000000000, -0.000000000000000000 ) ) ;
#35 = SHAPE_DEFINITION_REPRESENTATION ( #198, #5 ) ;
#36 = EDGE_CURVE ( 'NONE', #168, #92, #43, .T. ) ;
#37 = DIRECTION ( 'NONE',  ( 0.000000000000000000, 0.000000000000000000, 1.000000000000000000 ) ) ;
#38 = FACE_OUTER_BOUND ( 'NONE', #151, .T. ) ;
#39 = ORIENTED_EDGE ( 'NONE', *, *, #73, .T. ) ;
#40 = ORIENTED_EDGE ( 'NONE', *, *, #56, .F. ) ;
#41 = ADVANCED_FACE ( 'NONE', ( #178 ), #57, .F. ) ;
#42 = EDGE_LOOP ( 'NONE', ( #40, #77, #45, #91 ) ) ;
#43 = CIRCLE ( 'NONE', #159, 8.300000000000000711 ) ;
#44 = DIRECTION ( 'NONE',  ( -1.000000000000000000, -0.000000000000000000, -0.000000000000000000 ) ) ;
#45 = ORIENTED_EDGE ( 'NONE', *, *, #88, .T. ) ;
#46 = CARTESIAN_POINT ( 'NONE',  ( 25.00000000000000000, 0.000000000000000000, 0.000000000000000000 ) ) ;
#47 = SURFACE_STYLE_USAGE ( .BOTH. , #20 ) ;
#48 = CARTESIAN_POINT ( 'NONE',  ( -25.00000000000000000, 0.000000000000000000, 8.300000000000000711 ) ) ;
#49 = EDGE_CURVE ( 'NONE', #27, #92, #179, .T. ) ;
#50 = DIRECTION ( 'NONE',  ( -1.000000000000000000, -0.000000000000000000, -0.000000000000000000 ) ) ;
#51 = DIRECTION ( 'NONE',  ( 0.000000000000000000, 0.000000000000000000, 1.000000000000000000 ) ) ;
#52 = CARTESIAN_POINT ( 'NONE',  ( -17.47792894757627025, 0.000000000000000000, 0.000000000000000000 ) ) ;
#53 = DIRECTION ( 'NONE',  ( 1.000000000000000000, 0.000000000000000000, 0.000000000000000000 ) ) ;
#54 = ORIENTED_EDGE ( 'NONE', *, *, #176, .F. ) ;
#55 = ORIENTED_EDGE ( 'NONE', *, *, #64, .F. ) ;
#56 = EDGE_CURVE ( 'NONE', #90, #164, #106, .T. ) ;
#57 = CYLINDRICAL_SURFACE ( 'NONE', #181, 8.300000000000000711 ) ;
#58 = PRESENTATION_LAYER_ASSIGNMENT (  '', '', ( #33 ) ) ;
#59 = ORIENTED_EDGE ( 'NONE', *, *, #49, .F. ) ;
#60 = EDGE_LOOP ( 'NONE', ( #54, #167, #120, #59 ) ) ;
#61 = DIRECTION ( 'NONE',  ( 0.000000000000000000, 0.000000000000000000, 1.000000000000000000 ) ) ;
#62 = CARTESIAN_POINT ( 'NONE',  ( -25.00000000000000000, 0.000000000000000000, 0.000000000000000000 ) ) ;
#63 = PRESENTATION_STYLE_ASSIGNMENT (( #47 ) ) ;
#64 = EDGE_CURVE ( 'NONE', #27, #107, #105, .T. ) ;
#65 = DIRECTION ( 'NONE',  ( -1.000000000000000000, -0.000000000000000000, -0.000000000000000000 ) ) ;
#66 = CARTESIAN_POINT ( 'NONE',  ( 25.00000000000000000, 9.299999999999995381, 0.000000000000000000 ) ) ;
#67 = AXIS2_PLACEMENT_3D ( 'NONE', #125, #182, #69 ) ;
#68 = DIRECTION ( 'NONE',  ( 0.000000000000000000, 0.000000000000000000, 1.000000000000000000 ) ) ;
#69 = DIRECTION ( 'NONE',  ( 0.000000000000000000, 0.000000000000000000, 1.000000000000000000 ) ) ;
#70 =( NAMED_UNIT ( * ) SI_UNIT ( $, .STERADIAN. ) SOLID_ANGLE_UNIT ( ) );
#71 = VECTOR ( 'NONE', #138, 1000.000000000000000 ) ;
#72 = CARTESIAN_POINT ( 'NONE',  ( -25.00000000000000000, 0.000000000000000000, 0.000000000000000000 ) ) ;
#73 = EDGE_CURVE ( 'NONE', #177, #164, #174, .T. ) ;
#74 = ORIENTED_EDGE ( 'NONE', *, *, #73, .F. ) ;
#75 = DIRECTION ( 'NONE',  ( -1.000000000000000000, -0.000000000000000000, -0.000000000000000000 ) ) ;
#76 = CIRCLE ( 'NONE', #187, 9.299999999999995381 ) ;
#77 = ORIENTED_EDGE ( 'NONE', *, *, #122, .T. ) ;
#78 =( GEOMETRIC_REPRESENTATION_CONTEXT ( 3 ) GLOBAL_UNCERTAINTY_ASSIGNED_CONTEXT ( ( #84 ) ) GLOBAL_UNIT_ASSIGNED_CONTEXT ( ( #161, #9, #70 ) ) REPRESENTATION_CONTEXT ( 'NONE', 'WORKASPACE' ) );
#79 =( NAMED_UNIT ( * ) PLANE_ANGLE_UNIT ( ) SI_UNIT ( $, .RADIAN. ) );
#80 = CARTESIAN_POINT ( 'NONE',  ( -25.00000000000000000, 0.000000000000000000, 0.000000000000000000 ) ) ;
#81 = ADVANCED_FACE ( 'NONE', ( #128 ), #19, .T. ) ;
#82 = CYLINDRICAL_SURFACE ( 'NONE', #163, 9.299999999999997158 ) ;
#83 = FACE_OUTER_BOUND ( 'NONE', #141, .T. ) ;
#84 = UNCERTAINTY_MEASURE_WITH_UNIT (LENGTH_MEASURE( 1.000000000000000082E-05 ), #161, 'distance_accuracy_value', 'NONE');
#85 = APPLICATION_PROTOCOL_DEFINITION ( 'draft international standard', 'automotive_design', 1998, #4 ) ;
#86 = CARTESIAN_POINT ( 'NONE',  ( -25.00000000000000000, 9.299999999999995381, 0.000000000000000000 ) ) ;
#87 = APPLICATION_PROTOCOL_DEFINITION ( 'draft international standard', 'automotive_design', 1998, #126 ) ;
#88 = EDGE_CURVE ( 'NONE', #199, #177, #6, .T. ) ;
#89 = ORIENTED_EDGE ( 'NONE', *, *, #56, .T. ) ;
#90 = VERTEX_POINT ( 'NONE', #185 ) ;
#91 = ORIENTED_EDGE ( 'NONE', *, *, #117, .F. ) ;
#92 = VERTEX_POINT ( 'NONE', #48 ) ;
#93 = DIRECTION ( 'NONE',  ( -1.000000000000000000, -0.000000000000000000, -0.000000000000000000 ) ) ;
#94 = PRODUCT_DEFINITION_FORMATION_WITH_SPECIFIED_SOURCE ( 'ANY', '', #155, .NOT_KNOWN. ) ;
#95 = PRODUCT_RELATED_PRODUCT_CATEGORY ( 'part', '', ( #155 ) ) ;
#96 = FILL_AREA_STYLE ('',( #110 ) ) ;
#97 = SURFACE_STYLE_FILL_AREA ( #96 ) ;
#98 = DIRECTION ( 'NONE',  ( 0.000000000000000000, 0.000000000000000000, 1.000000000000000000 ) ) ;
#99 = CLOSED_SHELL ( 'NONE', ( #139, #190, #184, #41, #134, #81 ) ) ;
#100 = DIRECTION ( 'NONE',  ( 1.000000000000000000, 0.000000000000000000, 0.000000000000000000 ) ) ;
#101 = AXIS2_PLACEMENT_3D ( 'NONE', #114, #1, #61 ) ;
#102 = LINE ( 'NONE', #150, #71 ) ;
#103 = ORIENTED_EDGE ( 'NONE', *, *, #171, .F. ) ;
#104 = ORIENTED_EDGE ( 'NONE', *, *, #36, .F. ) ;
#105 = CIRCLE ( 'NONE', #191, 8.300000000000000711 ) ;
#106 = LINE ( 'NONE', #108, #123 ) ;
#107 = VERTEX_POINT ( 'NONE', #109 ) ;
#108 = CARTESIAN_POINT ( 'NONE',  ( -17.47792894757627025, 1.138921523207038179E-15, -9.299999999999997158 ) ) ;
#109 = CARTESIAN_POINT ( 'NONE',  ( 25.00000000000000000, 1.016456843292303031E-15, -8.300000000000000711 ) ) ;
#110 = FILL_AREA_STYLE_COLOUR ( '', #11 ) ;
#111 = MANIFOLD_SOLID_BREP ( 'DeleteFace2', #99 ) ;
#112 = MECHANICAL_DESIGN_GEOMETRIC_PRESENTATION_REPRESENTATION (  '', ( #33 ), #18 ) ;
#113 = AXIS2_PLACEMENT_3D ( 'NONE', #66, #21, #146 ) ;
#114 = CARTESIAN_POINT ( 'NONE',  ( 25.00000000000000000, 0.000000000000000000, 0.000000000000000000 ) ) ;
#115 = AXIS2_PLACEMENT_3D ( 'NONE', #86, #53, #23 ) ;
#116 = UNCERTAINTY_MEASURE_WITH_UNIT (LENGTH_MEASURE( 1.000000000000000082E-05 ), #158, 'distance_accuracy_value', 'NONE');
#117 = EDGE_CURVE ( 'NONE', #164, #177, #76, .T. ) ;
#118 = EDGE_LOOP ( 'NONE', ( #193, #104 ) ) ;
#119 = AXIS2_PLACEMENT_3D ( 'NONE', #3, #65, #7 ) ;
#120 = ORIENTED_EDGE ( 'NONE', *, *, #36, .T. ) ;
#121 = DIRECTION ( 'NONE',  ( 0.000000000000000000, 0.000000000000000000, 1.000000000000000000 ) ) ;
#122 = EDGE_CURVE ( 'NONE', #90, #199, #131, .T. ) ;
#123 = VECTOR ( 'NONE', #34, 1000.000000000000000 ) ;
#124 = ORIENTED_EDGE ( 'NONE', *, *, #117, .T. ) ;
#125 = CARTESIAN_POINT ( 'NONE',  ( 25.00000000000000000, 0.000000000000000000, 0.000000000000000000 ) ) ;
#126 = APPLICATION_CONTEXT ( 'automotive_design' ) ;
#127 = DIRECTION ( 'NONE',  ( 0.000000000000000000, 0.000000000000000000, 1.000000000000000000 ) ) ;
#128 = FACE_OUTER_BOUND ( 'NONE', #42, .T. ) ;
#129 = CARTESIAN_POINT ( 'NONE',  ( -17.47792894757627025, 0.000000000000000000, 0.000000000000000000 ) ) ;
#130 = DIRECTION ( 'NONE',  ( -1.000000000000000000, -0.000000000000000000, -0.000000000000000000 ) ) ;
#131 = CIRCLE ( 'NONE', #119, 9.299999999999995381 ) ;
#132 = CIRCLE ( 'NONE', #67, 8.300000000000000711 ) ;
#133 = FACE_BOUND ( 'NONE', #118, .T. ) ;
#134 = ADVANCED_FACE ( 'NONE', ( #156, #30 ), #32, .F. ) ;
#135 = PRODUCT_DEFINITION_CONTEXT ( 'detailed design', #4, 'design' ) ;
#136 = CARTESIAN_POINT ( 'NONE',  ( 0.000000000000000000, 0.000000000000000000, 0.000000000000000000 ) ) ;
#137 = DIRECTION ( 'NONE',  ( 0.000000000000000000, 0.000000000000000000, 1.000000000000000000 ) ) ;
#138 = DIRECTION ( 'NONE',  ( -1.000000000000000000, -0.000000000000000000, -0.000000000000000000 ) ) ;
#139 = ADVANCED_FACE ( 'NONE', ( #83 ), #82, .T. ) ;
#140 = CARTESIAN_POINT ( 'NONE',  ( -17.47792894757627025, 0.000000000000000000, 8.300000000000000711 ) ) ;
#141 = EDGE_LOOP ( 'NONE', ( #16, #89, #74, #28 ) ) ;
#142 = AXIS2_PLACEMENT_3D ( 'NONE', #62, #93, #170 ) ;
#143 = CARTESIAN_POINT ( 'NONE',  ( -25.00000000000000000, 1.016456843292303031E-15, -8.300000000000000711 ) ) ;
#144 = DIRECTION ( 'NONE',  ( -1.000000000000000000, -0.000000000000000000, -0.000000000000000000 ) ) ;
#145 = DIRECTION ( 'NONE',  ( -1.000000000000000000, -0.000000000000000000, -0.000000000000000000 ) ) ;
#146 = DIRECTION ( 'NONE',  ( -0.000000000000000000, 0.000000000000000000, 1.000000000000000000 ) ) ;
#147 = CARTESIAN_POINT ( 'NONE',  ( -17.47792894757627025, 0.000000000000000000, 9.299999999999997158 ) ) ;
#148 = CARTESIAN_POINT ( 'NONE',  ( 25.00000000000000000, 0.000000000000000000, 9.299999999999995381 ) ) ;
#149 = ORIENTED_EDGE ( 'NONE', *, *, #122, .F. ) ;
#150 = CARTESIAN_POINT ( 'NONE',  ( -17.47792894757627025, 1.016456843292303031E-15, -8.300000000000000711 ) ) ;
#151 = EDGE_LOOP ( 'NONE', ( #39, #124 ) ) ;
#152 = ORIENTED_EDGE ( 'NONE', *, *, #10, .F. ) ;
#153 = AXIS2_PLACEMENT_3D ( 'NONE', #172, #31, #127 ) ;
#154 = CARTESIAN_POINT ( 'NONE',  ( -25.00000000000000000, 0.000000000000000000, 0.000000000000000000 ) ) ;
#155 = PRODUCT ( '2046582', '2046582', '', ( #22 ) ) ;
#156 = FACE_OUTER_BOUND ( 'NONE', #196, .T. ) ;
#157 =( NAMED_UNIT ( * ) SI_UNIT ( $, .STERADIAN. ) SOLID_ANGLE_UNIT ( ) );
#158 =( LENGTH_UNIT ( ) NAMED_UNIT ( * ) SI_UNIT ( .MILLI., .METRE. ) );
#159 = AXIS2_PLACEMENT_3D ( 'NONE', #72, #75, #137 ) ;
#160 = DIRECTION ( 'NONE',  ( 0.000000000000000000, 0.000000000000000000, 1.000000000000000000 ) ) ;
#161 =( LENGTH_UNIT ( ) NAMED_UNIT ( * ) SI_UNIT ( .MILLI., .METRE. ) );
#162 = CYLINDRICAL_SURFACE ( 'NONE', #25, 8.300000000000000711 ) ;
#163 = AXIS2_PLACEMENT_3D ( 'NONE', #129, #130, #186 ) ;
#164 = VERTEX_POINT ( 'NONE', #188 ) ;
#165 = CARTESIAN_POINT ( 'NONE',  ( -17.47792894757627025, 0.000000000000000000, 0.000000000000000000 ) ) ;
#166 = EDGE_CURVE ( 'NONE', #92, #168, #169, .T. ) ;
#167 = ORIENTED_EDGE ( 'NONE', *, *, #10, .T. ) ;
#168 = VERTEX_POINT ( 'NONE', #143 ) ;
#169 = CIRCLE ( 'NONE', #173, 8.300000000000000711 ) ;
#170 = DIRECTION ( 'NONE',  ( 0.000000000000000000, 0.000000000000000000, 1.000000000000000000 ) ) ;
#171 = EDGE_CURVE ( 'NONE', #199, #90, #24, .T. ) ;
#172 = CARTESIAN_POINT ( 'NONE',  ( -17.47792894757627025, 0.000000000000000000, 0.000000000000000000 ) ) ;
#173 = AXIS2_PLACEMENT_3D ( 'NONE', #154, #50, #51 ) ;
#174 = CIRCLE ( 'NONE', #142, 9.299999999999995381 ) ;
#175 = PLANE ( 'NONE',  #115 ) ;
#176 = EDGE_CURVE ( 'NONE', #107, #27, #132, .T. ) ;
#177 = VERTEX_POINT ( 'NONE', #8 ) ;
#178 = FACE_OUTER_BOUND ( 'NONE', #17, .T. ) ;
#179 = LINE ( 'NONE', #140, #189 ) ;
#180 = ORIENTED_EDGE ( 'NONE', *, *, #49, .T. ) ;
#181 = AXIS2_PLACEMENT_3D ( 'NONE', #165, #15, #121 ) ;
#182 = DIRECTION ( 'NONE',  ( -1.000000000000000000, -0.000000000000000000, -0.000000000000000000 ) ) ;
#183 = DIRECTION ( 'NONE',  ( -1.000000000000000000, -0.000000000000000000, -0.000000000000000000 ) ) ;
#184 = ADVANCED_FACE ( 'NONE', ( #133, #38 ), #175, .F. ) ;
#185 = CARTESIAN_POINT ( 'NONE',  ( 25.00000000000000000, 1.138921523207038179E-15, -9.299999999999995381 ) ) ;
#186 = DIRECTION ( 'NONE',  ( 0.000000000000000000, 0.000000000000000000, 1.000000000000000000 ) ) ;
#187 = AXIS2_PLACEMENT_3D ( 'NONE', #80, #145, #160 ) ;
#188 = CARTESIAN_POINT ( 'NONE',  ( -25.00000000000000000, 1.138921523207038179E-15, -9.299999999999995381 ) ) ;
#189 = VECTOR ( 'NONE', #44, 1000.000000000000000 ) ;
#190 = ADVANCED_FACE ( 'NONE', ( #192 ), #162, .F. ) ;
#191 = AXIS2_PLACEMENT_3D ( 'NONE', #46, #144, #98 ) ;
#192 = FACE_OUTER_BOUND ( 'NONE', #60, .T. ) ;
#193 = ORIENTED_EDGE ( 'NONE', *, *, #166, .F. ) ;
#194 = EDGE_LOOP ( 'NONE', ( #29, #26 ) ) ;
#195 = AXIS2_PLACEMENT_3D ( 'NONE', #136, #37, #100 ) ;
#196 = EDGE_LOOP ( 'NONE', ( #103, #149 ) ) ;
#197 = VECTOR ( 'NONE', #183, 1000.000000000000000 ) ;
#198 = PRODUCT_DEFINITION_SHAPE ( 'NONE', 'NONE',  #2 ) ;
#199 = VERTEX_POINT ( 'NONE', #148 ) ;
ENDSEC;
END-ISO-10303-21;
