ISO-10303-21;
HEADER;
FILE_DESCRIPTION (( 'STEP AP214' ),
    '1' );
FILE_NAME ('2046524.STEP',
    '2025-01-24T14:50:45',
    ( '' ),
    ( '' ),
    'SwSTEP 2.0',
    'SolidWorks 2024',
    '' );
FILE_SCHEMA (( 'AUTOMOTIVE_DESIGN' ));
ENDSEC;

DATA;
#1 = ADVANCED_FACE ( 'NONE', ( #158 ), #48, .F. ) ;
#2 = PRODUCT_RELATED_PRODUCT_CATEGORY ( 'part', '', ( #123 ) ) ;
#3 = DIRECTION ( 'NONE',  ( -1.000000000000000000, 0.000000000000000000, -0.000000000000000000 ) ) ;
#4 = UNCERTAINTY_MEASURE_WITH_UNIT (LENGTH_MEASURE( 1.000000000000000082E-05 ), #85, 'distance_accuracy_value', 'NONE');
#5 = DIRECTION ( 'NONE',  ( -1.000000000000000000, -0.000000000000000000, -0.000000000000000000 ) ) ;
#6 = AXIS2_PLACEMENT_3D ( 'NONE', #98, #167, #97 ) ;
#7 = LINE ( 'NONE', #146, #83 ) ;
#8 = ORIENTED_EDGE ( 'NONE', *, *, #187, .F. ) ;
#9 = AXIS2_PLACEMENT_3D ( 'NONE', #164, #103, #11 ) ;
#10 = DIRECTION ( 'NONE',  ( -1.000000000000000000, -0.000000000000000000, -0.000000000000000000 ) ) ;
#11 = DIRECTION ( 'NONE',  ( 0.000000000000000000, 0.000000000000000000, 1.000000000000000000 ) ) ;
#12 = MECHANICAL_DESIGN_GEOMETRIC_PRESENTATION_REPRESENTATION (  '', ( #199 ), #60 ) ;
#13 = DIRECTION ( 'NONE',  ( 0.000000000000000000, 0.000000000000000000, 1.000000000000000000 ) ) ;
#14 = ORIENTED_EDGE ( 'NONE', *, *, #108, .F. ) ;
#15 = ADVANCED_FACE ( 'NONE', ( #62, #130 ), #170, .F. ) ;
#16 = ORIENTED_EDGE ( 'NONE', *, *, #129, .T. ) ;
#17 = ORIENTED_EDGE ( 'NONE', *, *, #132, .F. ) ;
#18 = EDGE_CURVE ( 'NONE', #106, #74, #145, .T. ) ;
#19 = ORIENTED_EDGE ( 'NONE', *, *, #159, .T. ) ;
#20 = ORIENTED_EDGE ( 'NONE', *, *, #159, .F. ) ;
#21 = CARTESIAN_POINT ( 'NONE',  ( 20.50000000000000000, 0.000000000000000000, 0.000000000000000000 ) ) ;
#22 = AXIS2_PLACEMENT_3D ( 'NONE', #105, #10, #13 ) ;
#23 = CYLINDRICAL_SURFACE ( 'NONE', #6, 13.65000000000000213 ) ;
#24 = DIRECTION ( 'NONE',  ( -1.000000000000000000, -0.000000000000000000, -0.000000000000000000 ) ) ;
#25 = CARTESIAN_POINT ( 'NONE',  ( -20.50000000000000000, 0.000000000000000000, 11.75000000000000000 ) ) ;
#26 = VECTOR ( 'NONE', #194, 1000.000000000000000 ) ;
#27 = ORIENTED_EDGE ( 'NONE', *, *, #18, .F. ) ;
#28 = EDGE_CURVE ( 'NONE', #193, #143, #7, .T. ) ;
#29 = FACE_OUTER_BOUND ( 'NONE', #92, .T. ) ;
#30 = FACE_BOUND ( 'NONE', #198, .T. ) ;
#31 = CARTESIAN_POINT ( 'NONE',  ( -20.50000000000000000, 1.671642880836137494E-15, -13.65000000000000213 ) ) ;
#32 = ADVANCED_FACE ( 'NONE', ( #33, #30 ), #82, .F. ) ;
#33 = FACE_OUTER_BOUND ( 'NONE', #117, .T. ) ;
#34 = CARTESIAN_POINT ( 'NONE',  ( -20.50000000000000000, 13.65000000000000213, 0.000000000000000000 ) ) ;
#35 = CIRCLE ( 'NONE', #43, 11.75000000000000000 ) ;
#36 = PRODUCT_DEFINITION_CONTEXT ( 'detailed design', #180, 'design' ) ;
#37 = CARTESIAN_POINT ( 'NONE',  ( -20.50000000000000000, 0.000000000000000000, 0.000000000000000000 ) ) ;
#38 = SURFACE_STYLE_FILL_AREA ( #69 ) ;
#39 = CIRCLE ( 'NONE', #140, 11.75000000000000000 ) ;
#40 = DIRECTION ( 'NONE',  ( 0.000000000000000000, 0.000000000000000000, 1.000000000000000000 ) ) ;
#41 = LINE ( 'NONE', #25, #65 ) ;
#42 = CARTESIAN_POINT ( 'NONE',  ( 0.000000000000000000, 0.000000000000000000, 0.000000000000000000 ) ) ;
#43 = AXIS2_PLACEMENT_3D ( 'NONE', #88, #24, #135 ) ;
#44 = ORIENTED_EDGE ( 'NONE', *, *, #155, .T. ) ;
#45 = DIRECTION ( 'NONE',  ( 0.000000000000000000, 0.000000000000000000, -1.000000000000000000 ) ) ;
#46 = ORIENTED_EDGE ( 'NONE', *, *, #121, .F. ) ;
#47 = FACE_OUTER_BOUND ( 'NONE', #178, .T. ) ;
#48 = CYLINDRICAL_SURFACE ( 'NONE', #64, 11.75000000000000000 ) ;
#49 = CARTESIAN_POINT ( 'NONE',  ( -20.50000000000000000, 0.000000000000000000, 11.75000000000000000 ) ) ;
#50 = CIRCLE ( 'NONE', #9, 11.75000000000000000 ) ;
#51 =( LENGTH_UNIT ( ) NAMED_UNIT ( * ) SI_UNIT ( .MILLI., .METRE. ) );
#52 = ORIENTED_EDGE ( 'NONE', *, *, #28, .T. ) ;
#53 = APPLICATION_CONTEXT ( 'automotive_design' ) ;
#54 = PRESENTATION_STYLE_ASSIGNMENT (( #133 ) ) ;
#55 = EDGE_LOOP ( 'NONE', ( #20, #153 ) ) ;
#56 = VECTOR ( 'NONE', #66, 1000.000000000000000 ) ;
#57 = EDGE_LOOP ( 'NONE', ( #142, #87, #73, #19 ) ) ;
#58 = PRODUCT_DEFINITION_FORMATION_WITH_SPECIFIED_SOURCE ( 'ANY', '', #123, .NOT_KNOWN. ) ;
#59 = VERTEX_POINT ( 'NONE', #186 ) ;
#60 =( GEOMETRIC_REPRESENTATION_CONTEXT ( 3 ) GLOBAL_UNCERTAINTY_ASSIGNED_CONTEXT ( ( #4 ) ) GLOBAL_UNIT_ASSIGNED_CONTEXT ( ( #85, #173, #148 ) ) REPRESENTATION_CONTEXT ( 'NONE', 'WORKASPACE' ) );
#61 = DIRECTION ( 'NONE',  ( 0.000000000000000000, 0.000000000000000000, 1.000000000000000000 ) ) ;
#62 = FACE_BOUND ( 'NONE', #55, .T. ) ;
#63 = DIRECTION ( 'NONE',  ( -1.000000000000000000, -0.000000000000000000, -0.000000000000000000 ) ) ;
#64 = AXIS2_PLACEMENT_3D ( 'NONE', #101, #5, #112 ) ;
#65 = VECTOR ( 'NONE', #113, 1000.000000000000000 ) ;
#66 = DIRECTION ( 'NONE',  ( -1.000000000000000000, -0.000000000000000000, -0.000000000000000000 ) ) ;
#67 = DIRECTION ( 'NONE',  ( -1.000000000000000000, -0.000000000000000000, -0.000000000000000000 ) ) ;
#68 = FACE_OUTER_BOUND ( 'NONE', #57, .T. ) ;
#69 = FILL_AREA_STYLE ('',( #196 ) ) ;
#70 =( NAMED_UNIT ( * ) SI_UNIT ( $, .STERADIAN. ) SOLID_ANGLE_UNIT ( ) );
#71 = CARTESIAN_POINT ( 'NONE',  ( 20.50000000000000000, 0.000000000000000000, 0.000000000000000000 ) ) ;
#72 = CARTESIAN_POINT ( 'NONE',  ( -20.50000000000000000, 0.000000000000000000, 0.000000000000000000 ) ) ;
#73 = ORIENTED_EDGE ( 'NONE', *, *, #152, .T. ) ;
#74 = VERTEX_POINT ( 'NONE', #31 ) ;
#75 = PRODUCT_CONTEXT ( 'NONE', #53, 'mechanical' ) ;
#76 = PRODUCT_DEFINITION_SHAPE ( 'NONE', 'NONE',  #150 ) ;
#77 = ORIENTED_EDGE ( 'NONE', *, *, #100, .F. ) ;
#78 =( GEOMETRIC_REPRESENTATION_CONTEXT ( 3 ) GLOBAL_UNCERTAINTY_ASSIGNED_CONTEXT ( ( #156 ) ) GLOBAL_UNIT_ASSIGNED_CONTEXT ( ( #51, #149, #70 ) ) REPRESENTATION_CONTEXT ( 'NONE', 'WORKASPACE' ) );
#79 = EDGE_LOOP ( 'NONE', ( #16, #94 ) ) ;
#80 = ADVANCED_FACE ( 'NONE', ( #47 ), #23, .T. ) ;
#81 = CARTESIAN_POINT ( 'NONE',  ( -20.50000000000000000, 1.671642880836137494E-15, -13.65000000000000213 ) ) ;
#82 = PLANE ( 'NONE',  #195 ) ;
#83 = VECTOR ( 'NONE', #63, 1000.000000000000000 ) ;
#84 = CARTESIAN_POINT ( 'NONE',  ( 20.50000000000000000, 0.000000000000000000, 13.65000000000000213 ) ) ;
#85 =( LENGTH_UNIT ( ) NAMED_UNIT ( * ) SI_UNIT ( .MILLI., .METRE. ) );
#86 = AXIS2_PLACEMENT_3D ( 'NONE', #96, #157, #61 ) ;
#87 = ORIENTED_EDGE ( 'NONE', *, *, #155, .F. ) ;
#88 = CARTESIAN_POINT ( 'NONE',  ( -20.50000000000000000, 0.000000000000000000, 0.000000000000000000 ) ) ;
#89 = ORIENTED_EDGE ( 'NONE', *, *, #152, .F. ) ;
#90 = CIRCLE ( 'NONE', #174, 13.65000000000000213 ) ;
#91 = APPLICATION_PROTOCOL_DEFINITION ( 'draft international standard', 'automotive_design', 1998, #180 ) ;
#92 = EDGE_LOOP ( 'NONE', ( #138, #137, #189, #46 ) ) ;
#93 = AXIS2_PLACEMENT_3D ( 'NONE', #162, #192, #190 ) ;
#94 = ORIENTED_EDGE ( 'NONE', *, *, #132, .T. ) ;
#95 = VERTEX_POINT ( 'NONE', #84 ) ;
#96 = CARTESIAN_POINT ( 'NONE',  ( -20.50000000000000000, 0.000000000000000000, 0.000000000000000000 ) ) ;
#97 = DIRECTION ( 'NONE',  ( 0.000000000000000000, 0.000000000000000000, 1.000000000000000000 ) ) ;
#98 = CARTESIAN_POINT ( 'NONE',  ( -20.50000000000000000, 0.000000000000000000, 0.000000000000000000 ) ) ;
#99 = CARTESIAN_POINT ( 'NONE',  ( 20.50000000000000000, 13.65000000000000213, 0.000000000000000000 ) ) ;
#100 = EDGE_CURVE ( 'NONE', #95, #106, #107, .T. ) ;
#101 = CARTESIAN_POINT ( 'NONE',  ( -20.50000000000000000, 0.000000000000000000, 0.000000000000000000 ) ) ;
#102 = PRESENTATION_LAYER_ASSIGNMENT (  '', '', ( #199 ) ) ;
#103 = DIRECTION ( 'NONE',  ( -1.000000000000000000, -0.000000000000000000, -0.000000000000000000 ) ) ;
#104 = CIRCLE ( 'NONE', #122, 13.65000000000000213 ) ;
#105 = CARTESIAN_POINT ( 'NONE',  ( -20.50000000000000000, 0.000000000000000000, 0.000000000000000000 ) ) ;
#106 = VERTEX_POINT ( 'NONE', #111 ) ;
#107 = CIRCLE ( 'NONE', #179, 13.65000000000000213 ) ;
#108 = EDGE_CURVE ( 'NONE', #106, #95, #90, .T. ) ;
#109 = VERTEX_POINT ( 'NONE', #141 ) ;
#110 = VERTEX_POINT ( 'NONE', #49 ) ;
#111 = CARTESIAN_POINT ( 'NONE',  ( 20.50000000000000000, 1.671642880836137494E-15, -13.65000000000000213 ) ) ;
#112 = DIRECTION ( 'NONE',  ( 0.000000000000000000, 0.000000000000000000, 1.000000000000000000 ) ) ;
#113 = DIRECTION ( 'NONE',  ( -1.000000000000000000, -0.000000000000000000, -0.000000000000000000 ) ) ;
#114 = ADVANCED_FACE ( 'NONE', ( #29 ), #168, .T. ) ;
#115 = DIRECTION ( 'NONE',  ( 0.000000000000000000, 0.000000000000000000, 1.000000000000000000 ) ) ;
#116 = CARTESIAN_POINT ( 'NONE',  ( 20.50000000000000000, 1.438959988998140160E-15, -11.75000000000000000 ) ) ;
#117 = EDGE_LOOP ( 'NONE', ( #77, #14 ) ) ;
#118 = CARTESIAN_POINT ( 'NONE',  ( -20.50000000000000000, 1.438959988998140160E-15, -11.75000000000000000 ) ) ;
#119 = DIRECTION ( 'NONE',  ( -1.000000000000000000, -0.000000000000000000, -0.000000000000000000 ) ) ;
#120 = ORIENTED_EDGE ( 'NONE', *, *, #191, .T. ) ;
#121 = EDGE_CURVE ( 'NONE', #95, #109, #127, .T. ) ;
#122 = AXIS2_PLACEMENT_3D ( 'NONE', #72, #119, #40 ) ;
#123 = PRODUCT ( '2046524', '2046524', '', ( #75 ) ) ;
#124 = SHAPE_DEFINITION_REPRESENTATION ( #76, #182 ) ;
#125 = EDGE_LOOP ( 'NONE', ( #8, #52, #120, #89 ) ) ;
#126 = AXIS2_PLACEMENT_3D ( 'NONE', #42, #136, #177 ) ;
#127 = LINE ( 'NONE', #181, #26 ) ;
#128 = DIRECTION ( 'NONE',  ( -0.000000000000000000, 0.000000000000000000, 1.000000000000000000 ) ) ;
#129 = EDGE_CURVE ( 'NONE', #109, #74, #166, .T. ) ;
#130 = FACE_OUTER_BOUND ( 'NONE', #79, .T. ) ;
#131 = DIRECTION ( 'NONE',  ( -1.000000000000000000, -0.000000000000000000, -0.000000000000000000 ) ) ;
#132 = EDGE_CURVE ( 'NONE', #74, #109, #104, .T. ) ;
#133 = SURFACE_STYLE_USAGE ( .BOTH. , #134 ) ;
#134 = SURFACE_SIDE_STYLE ('',( #38 ) ) ;
#135 = DIRECTION ( 'NONE',  ( 0.000000000000000000, 0.000000000000000000, 1.000000000000000000 ) ) ;
#136 = DIRECTION ( 'NONE',  ( 0.000000000000000000, 0.000000000000000000, 1.000000000000000000 ) ) ;
#137 = ORIENTED_EDGE ( 'NONE', *, *, #18, .T. ) ;
#138 = ORIENTED_EDGE ( 'NONE', *, *, #100, .T. ) ;
#139 = ADVANCED_FACE ( 'NONE', ( #68 ), #175, .F. ) ;
#140 = AXIS2_PLACEMENT_3D ( 'NONE', #71, #171, #163 ) ;
#141 = CARTESIAN_POINT ( 'NONE',  ( -20.50000000000000000, 0.000000000000000000, 13.65000000000000213 ) ) ;
#142 = ORIENTED_EDGE ( 'NONE', *, *, #28, .F. ) ;
#143 = VERTEX_POINT ( 'NONE', #118 ) ;
#144 = COLOUR_RGB ( '',0.7921568627450980005, 0.8196078431372548767, 0.9333333333333333481 ) ;
#145 = LINE ( 'NONE', #81, #56 ) ;
#146 = CARTESIAN_POINT ( 'NONE',  ( -20.50000000000000000, 1.438959988998140160E-15, -11.75000000000000000 ) ) ;
#147 = APPLICATION_PROTOCOL_DEFINITION ( 'draft international standard', 'automotive_design', 1998, #53 ) ;
#148 =( NAMED_UNIT ( * ) SI_UNIT ( $, .STERADIAN. ) SOLID_ANGLE_UNIT ( ) );
#149 =( NAMED_UNIT ( * ) PLANE_ANGLE_UNIT ( ) SI_UNIT ( $, .RADIAN. ) );
#150 = PRODUCT_DEFINITION ( 'UNKNOWN', '', #58, #36 ) ;
#151 = DIRECTION ( 'NONE',  ( -1.000000000000000000, -0.000000000000000000, -0.000000000000000000 ) ) ;
#152 = EDGE_CURVE ( 'NONE', #59, #110, #41, .T. ) ;
#153 = ORIENTED_EDGE ( 'NONE', *, *, #191, .F. ) ;
#154 = AXIS2_PLACEMENT_3D ( 'NONE', #37, #151, #115 ) ;
#155 = EDGE_CURVE ( 'NONE', #59, #193, #39, .T. ) ;
#156 = UNCERTAINTY_MEASURE_WITH_UNIT (LENGTH_MEASURE( 1.000000000000000082E-05 ), #51, 'distance_accuracy_value', 'NONE');
#157 = DIRECTION ( 'NONE',  ( -1.000000000000000000, -0.000000000000000000, -0.000000000000000000 ) ) ;
#158 = FACE_OUTER_BOUND ( 'NONE', #125, .T. ) ;
#159 = EDGE_CURVE ( 'NONE', #110, #143, #184, .T. ) ;
#160 = CARTESIAN_POINT ( 'NONE',  ( 20.50000000000000000, 0.000000000000000000, 0.000000000000000000 ) ) ;
#161 = DIRECTION ( 'NONE',  ( 1.000000000000000000, 0.000000000000000000, 0.000000000000000000 ) ) ;
#162 = CARTESIAN_POINT ( 'NONE',  ( -20.50000000000000000, 0.000000000000000000, 0.000000000000000000 ) ) ;
#163 = DIRECTION ( 'NONE',  ( 0.000000000000000000, 0.000000000000000000, 1.000000000000000000 ) ) ;
#164 = CARTESIAN_POINT ( 'NONE',  ( 20.50000000000000000, 0.000000000000000000, 0.000000000000000000 ) ) ;
#165 = ORIENTED_EDGE ( 'NONE', *, *, #121, .T. ) ;
#166 = CIRCLE ( 'NONE', #22, 13.65000000000000213 ) ;
#167 = DIRECTION ( 'NONE',  ( -1.000000000000000000, -0.000000000000000000, -0.000000000000000000 ) ) ;
#168 = CYLINDRICAL_SURFACE ( 'NONE', #86, 13.65000000000000213 ) ;
#169 = DIRECTION ( 'NONE',  ( 0.000000000000000000, 0.000000000000000000, 1.000000000000000000 ) ) ;
#170 = PLANE ( 'NONE',  #185 ) ;
#171 = DIRECTION ( 'NONE',  ( -1.000000000000000000, -0.000000000000000000, -0.000000000000000000 ) ) ;
#172 = CLOSED_SHELL ( 'NONE', ( #114, #1, #15, #139, #32, #80 ) ) ;
#173 =( NAMED_UNIT ( * ) PLANE_ANGLE_UNIT ( ) SI_UNIT ( $, .RADIAN. ) );
#174 = AXIS2_PLACEMENT_3D ( 'NONE', #21, #131, #183 ) ;
#175 = CYLINDRICAL_SURFACE ( 'NONE', #154, 11.75000000000000000 ) ;
#176 = ORIENTED_EDGE ( 'NONE', *, *, #187, .T. ) ;
#177 = DIRECTION ( 'NONE',  ( 1.000000000000000000, 0.000000000000000000, 0.000000000000000000 ) ) ;
#178 = EDGE_LOOP ( 'NONE', ( #27, #197, #165, #17 ) ) ;
#179 = AXIS2_PLACEMENT_3D ( 'NONE', #160, #67, #169 ) ;
#180 = APPLICATION_CONTEXT ( 'automotive_design' ) ;
#181 = CARTESIAN_POINT ( 'NONE',  ( -20.50000000000000000, 0.000000000000000000, 13.65000000000000213 ) ) ;
#182 = ADVANCED_BREP_SHAPE_REPRESENTATION ( '2046524', ( #188, #126 ), #78 ) ;
#183 = DIRECTION ( 'NONE',  ( 0.000000000000000000, 0.000000000000000000, 1.000000000000000000 ) ) ;
#184 = CIRCLE ( 'NONE', #93, 11.75000000000000000 ) ;
#185 = AXIS2_PLACEMENT_3D ( 'NONE', #34, #161, #45 ) ;
#186 = CARTESIAN_POINT ( 'NONE',  ( 20.50000000000000000, 0.000000000000000000, 11.75000000000000000 ) ) ;
#187 = EDGE_CURVE ( 'NONE', #193, #59, #50, .T. ) ;
#188 = MANIFOLD_SOLID_BREP ( 'Rotation1', #172 ) ;
#189 = ORIENTED_EDGE ( 'NONE', *, *, #129, .F. ) ;
#190 = DIRECTION ( 'NONE',  ( 0.000000000000000000, 0.000000000000000000, 1.000000000000000000 ) ) ;
#191 = EDGE_CURVE ( 'NONE', #143, #110, #35, .T. ) ;
#192 = DIRECTION ( 'NONE',  ( -1.000000000000000000, -0.000000000000000000, -0.000000000000000000 ) ) ;
#193 = VERTEX_POINT ( 'NONE', #116 ) ;
#194 = DIRECTION ( 'NONE',  ( -1.000000000000000000, -0.000000000000000000, -0.000000000000000000 ) ) ;
#195 = AXIS2_PLACEMENT_3D ( 'NONE', #99, #3, #128 ) ;
#196 = FILL_AREA_STYLE_COLOUR ( '', #144 ) ;
#197 = ORIENTED_EDGE ( 'NONE', *, *, #108, .T. ) ;
#198 = EDGE_LOOP ( 'NONE', ( #44, #176 ) ) ;
#199 = STYLED_ITEM ( 'NONE', ( #54 ), #188 ) ;
ENDSEC;
END-ISO-10303-21;
