ISO-10303-21;
HEADER;
FILE_DESCRIPTION (( 'STEP AP214' ),
    '1' );
FILE_NAME ('2046523.STEP',
    '2025-01-24T14:49:42',
    ( '' ),
    ( '' ),
    'SwSTEP 2.0',
    'SolidWorks 2024',
    '' );
FILE_SCHEMA (( 'AUTOMOTIVE_DESIGN' ));
ENDSEC;

DATA;
#1 = DIRECTION ( 'NONE',  ( -1.000000000000000000, -0.000000000000000000, -0.000000000000000000 ) ) ;
#2 = CARTESIAN_POINT ( 'NONE',  ( -17.50000000000000000, 1.132798289211301698E-15, -9.250000000000000000 ) ) ;
#3 = DIRECTION ( 'NONE',  ( 0.000000000000000000, 0.000000000000000000, 1.000000000000000000 ) ) ;
#4 = CARTESIAN_POINT ( 'NONE',  ( -17.50000000000000000, 1.365481181049298835E-15, -11.15000000000000036 ) ) ;
#5 = VERTEX_POINT ( 'NONE', #60 ) ;
#6 = CIRCLE ( 'NONE', #128, 11.15000000000000036 ) ;
#7 = ORIENTED_EDGE ( 'NONE', *, *, #23, .F. ) ;
#8 = VERTEX_POINT ( 'NONE', #32 ) ;
#9 = CARTESIAN_POINT ( 'NONE',  ( -17.50000000000000000, 1.132798289211301698E-15, -9.250000000000000000 ) ) ;
#10 = ORIENTED_EDGE ( 'NONE', *, *, #67, .F. ) ;
#11 = ORIENTED_EDGE ( 'NONE', *, *, #51, .T. ) ;
#12 = PLANE ( 'NONE',  #138 ) ;
#13 = ADVANCED_FACE ( 'NONE', ( #127 ), #48, .T. ) ;
#14 = CIRCLE ( 'NONE', #56, 11.15000000000000036 ) ;
#15 = AXIS2_PLACEMENT_3D ( 'NONE', #120, #86, #104 ) ;
#16 = COLOUR_RGB ( '',0.7921568627450980005, 0.8196078431372548767, 0.9333333333333333481 ) ;
#17 = CARTESIAN_POINT ( 'NONE',  ( 17.50000000000000000, 1.365481181049298835E-15, -11.15000000000000036 ) ) ;
#18 = DIRECTION ( 'NONE',  ( -1.000000000000000000, -0.000000000000000000, -0.000000000000000000 ) ) ;
#19 = FILL_AREA_STYLE ('',( #40 ) ) ;
#20 = ADVANCED_FACE ( 'NONE', ( #147 ), #76, .F. ) ;
#21 =( NAMED_UNIT ( * ) SI_UNIT ( $, .STERADIAN. ) SOLID_ANGLE_UNIT ( ) );
#22 = DIRECTION ( 'NONE',  ( -1.000000000000000000, -0.000000000000000000, -0.000000000000000000 ) ) ;
#23 = EDGE_CURVE ( 'NONE', #195, #5, #101, .T. ) ;
#24 = DIRECTION ( 'NONE',  ( 1.000000000000000000, 0.000000000000000000, 0.000000000000000000 ) ) ;
#25 = AXIS2_PLACEMENT_3D ( 'NONE', #134, #167, #181 ) ;
#26 = VERTEX_POINT ( 'NONE', #117 ) ;
#27 = VECTOR ( 'NONE', #79, 1000.000000000000000 ) ;
#28 = PRODUCT_CONTEXT ( 'NONE', #107, 'mechanical' ) ;
#29 = VECTOR ( 'NONE', #72, 1000.000000000000000 ) ;
#30 = ORIENTED_EDGE ( 'NONE', *, *, #67, .T. ) ;
#31 = ORIENTED_EDGE ( 'NONE', *, *, #123, .T. ) ;
#32 = CARTESIAN_POINT ( 'NONE',  ( -17.50000000000000000, 0.000000000000000000, 11.15000000000000036 ) ) ;
#33 = ORIENTED_EDGE ( 'NONE', *, *, #183, .T. ) ;
#34 = CYLINDRICAL_SURFACE ( 'NONE', #199, 11.15000000000000036 ) ;
#35 = LINE ( 'NONE', #152, #27 ) ;
#36 = MECHANICAL_DESIGN_GEOMETRIC_PRESENTATION_REPRESENTATION (  '', ( #154 ), #91 ) ;
#37 = ADVANCED_FACE ( 'NONE', ( #74 ), #34, .T. ) ;
#38 = FACE_OUTER_BOUND ( 'NONE', #119, .T. ) ;
#39 = DIRECTION ( 'NONE',  ( -1.000000000000000000, -0.000000000000000000, -0.000000000000000000 ) ) ;
#40 = FILL_AREA_STYLE_COLOUR ( '', #16 ) ;
#41 = LINE ( 'NONE', #96, #145 ) ;
#42 = DIRECTION ( 'NONE',  ( -1.000000000000000000, -0.000000000000000000, -0.000000000000000000 ) ) ;
#43 = ORIENTED_EDGE ( 'NONE', *, *, #133, .T. ) ;
#44 = CARTESIAN_POINT ( 'NONE',  ( -17.50000000000000000, 1.365481181049298835E-15, -11.15000000000000036 ) ) ;
#45 = EDGE_LOOP ( 'NONE', ( #7, #164, #78, #161 ) ) ;
#46 = EDGE_LOOP ( 'NONE', ( #63, #193, #30, #191 ) ) ;
#47 = APPLICATION_PROTOCOL_DEFINITION ( 'draft international standard', 'automotive_design', 1998, #83 ) ;
#48 = CYLINDRICAL_SURFACE ( 'NONE', #136, 11.15000000000000036 ) ;
#49 = CARTESIAN_POINT ( 'NONE',  ( -17.50000000000000000, 11.15000000000000036, 0.000000000000000000 ) ) ;
#50 = CIRCLE ( 'NONE', #186, 9.250000000000000000 ) ;
#51 = EDGE_CURVE ( 'NONE', #131, #75, #116, .T. ) ;
#52 =( GEOMETRIC_REPRESENTATION_CONTEXT ( 3 ) GLOBAL_UNCERTAINTY_ASSIGNED_CONTEXT ( ( #108 ) ) GLOBAL_UNIT_ASSIGNED_CONTEXT ( ( #95, #58, #21 ) ) REPRESENTATION_CONTEXT ( 'NONE', 'WORKASPACE' ) );
#53 = EDGE_CURVE ( 'NONE', #75, #8, #6, .T. ) ;
#54 = DIRECTION ( 'NONE',  ( 0.000000000000000000, 0.000000000000000000, 1.000000000000000000 ) ) ;
#55 = CARTESIAN_POINT ( 'NONE',  ( 17.50000000000000000, 0.000000000000000000, 0.000000000000000000 ) ) ;
#56 = AXIS2_PLACEMENT_3D ( 'NONE', #82, #125, #184 ) ;
#57 = AXIS2_PLACEMENT_3D ( 'NONE', #151, #189, #64 ) ;
#58 =( NAMED_UNIT ( * ) PLANE_ANGLE_UNIT ( ) SI_UNIT ( $, .RADIAN. ) );
#59 =( LENGTH_UNIT ( ) NAMED_UNIT ( * ) SI_UNIT ( .MILLI., .METRE. ) );
#60 = CARTESIAN_POINT ( 'NONE',  ( 17.50000000000000000, 0.000000000000000000, 9.250000000000000000 ) ) ;
#61 = ORIENTED_EDGE ( 'NONE', *, *, #77, .F. ) ;
#62 = EDGE_LOOP ( 'NONE', ( #61, #84 ) ) ;
#63 = ORIENTED_EDGE ( 'NONE', *, *, #51, .F. ) ;
#64 = DIRECTION ( 'NONE',  ( 0.000000000000000000, 0.000000000000000000, 1.000000000000000000 ) ) ;
#65 = DIRECTION ( 'NONE',  ( 0.000000000000000000, 0.000000000000000000, -1.000000000000000000 ) ) ;
#66 = PRODUCT ( '2046523', '2046523', '', ( #28 ) ) ;
#67 = EDGE_CURVE ( 'NONE', #178, #8, #41, .T. ) ;
#68 = DIRECTION ( 'NONE',  ( -0.000000000000000000, 0.000000000000000000, 1.000000000000000000 ) ) ;
#69 = SURFACE_STYLE_FILL_AREA ( #19 ) ;
#70 = CARTESIAN_POINT ( 'NONE',  ( -17.50000000000000000, 0.000000000000000000, 0.000000000000000000 ) ) ;
#71 = CARTESIAN_POINT ( 'NONE',  ( 17.50000000000000000, 11.15000000000000036, 0.000000000000000000 ) ) ;
#72 = DIRECTION ( 'NONE',  ( -1.000000000000000000, -0.000000000000000000, -0.000000000000000000 ) ) ;
#73 = EDGE_CURVE ( 'NONE', #195, #180, #158, .T. ) ;
#74 = FACE_OUTER_BOUND ( 'NONE', #118, .T. ) ;
#75 = VERTEX_POINT ( 'NONE', #44 ) ;
#76 = CYLINDRICAL_SURFACE ( 'NONE', #57, 9.250000000000000000 ) ;
#77 = EDGE_CURVE ( 'NONE', #26, #180, #111, .T. ) ;
#78 = ORIENTED_EDGE ( 'NONE', *, *, #162, .T. ) ;
#79 = DIRECTION ( 'NONE',  ( -1.000000000000000000, -0.000000000000000000, -0.000000000000000000 ) ) ;
#80 = AXIS2_PLACEMENT_3D ( 'NONE', #140, #156, #114 ) ;
#81 = CARTESIAN_POINT ( 'NONE',  ( -17.50000000000000000, 0.000000000000000000, 0.000000000000000000 ) ) ;
#82 = CARTESIAN_POINT ( 'NONE',  ( 17.50000000000000000, 0.000000000000000000, 0.000000000000000000 ) ) ;
#83 = APPLICATION_CONTEXT ( 'automotive_design' ) ;
#84 = ORIENTED_EDGE ( 'NONE', *, *, #162, .F. ) ;
#85 = ORIENTED_EDGE ( 'NONE', *, *, #73, .F. ) ;
#86 = DIRECTION ( 'NONE',  ( -1.000000000000000000, -0.000000000000000000, -0.000000000000000000 ) ) ;
#87 = DIRECTION ( 'NONE',  ( 0.000000000000000000, 0.000000000000000000, 1.000000000000000000 ) ) ;
#88 = CARTESIAN_POINT ( 'NONE',  ( -17.50000000000000000, 0.000000000000000000, 0.000000000000000000 ) ) ;
#89 = AXIS2_PLACEMENT_3D ( 'NONE', #70, #1, #155 ) ;
#90 = PRODUCT_RELATED_PRODUCT_CATEGORY ( 'part', '', ( #66 ) ) ;
#91 =( GEOMETRIC_REPRESENTATION_CONTEXT ( 3 ) GLOBAL_UNCERTAINTY_ASSIGNED_CONTEXT ( ( #166 ) ) GLOBAL_UNIT_ASSIGNED_CONTEXT ( ( #59, #146, #188 ) ) REPRESENTATION_CONTEXT ( 'NONE', 'WORKASPACE' ) );
#92 = FACE_OUTER_BOUND ( 'NONE', #45, .T. ) ;
#93 = PRESENTATION_STYLE_ASSIGNMENT (( #144 ) ) ;
#94 = ADVANCED_FACE ( 'NONE', ( #197, #121 ), #12, .F. ) ;
#95 =( LENGTH_UNIT ( ) NAMED_UNIT ( * ) SI_UNIT ( .MILLI., .METRE. ) );
#96 = CARTESIAN_POINT ( 'NONE',  ( -17.50000000000000000, 0.000000000000000000, 11.15000000000000036 ) ) ;
#97 = SHAPE_DEFINITION_REPRESENTATION ( #137, #110 ) ;
#98 = ORIENTED_EDGE ( 'NONE', *, *, #124, .F. ) ;
#99 = CIRCLE ( 'NONE', #106, 11.15000000000000036 ) ;
#100 = ORIENTED_EDGE ( 'NONE', *, *, #77, .T. ) ;
#101 = CIRCLE ( 'NONE', #15, 9.250000000000000000 ) ;
#102 = ORIENTED_EDGE ( 'NONE', *, *, #183, .F. ) ;
#103 = EDGE_LOOP ( 'NONE', ( #85, #173, #31, #100 ) ) ;
#104 = DIRECTION ( 'NONE',  ( 0.000000000000000000, 0.000000000000000000, 1.000000000000000000 ) ) ;
#105 = DIRECTION ( 'NONE',  ( 1.000000000000000000, 0.000000000000000000, 0.000000000000000000 ) ) ;
#106 = AXIS2_PLACEMENT_3D ( 'NONE', #55, #157, #126 ) ;
#107 = APPLICATION_CONTEXT ( 'automotive_design' ) ;
#108 = UNCERTAINTY_MEASURE_WITH_UNIT (LENGTH_MEASURE( 1.000000000000000082E-05 ), #95, 'distance_accuracy_value', 'NONE');
#109 = DIRECTION ( 'NONE',  ( -1.000000000000000000, 0.000000000000000000, -0.000000000000000000 ) ) ;
#110 = ADVANCED_BREP_SHAPE_REPRESENTATION ( '2046523', ( #185, #174 ), #52 ) ;
#111 = CIRCLE ( 'NONE', #25, 9.250000000000000000 ) ;
#112 = CLOSED_SHELL ( 'NONE', ( #37, #148, #94, #20, #153, #13 ) ) ;
#113 = APPLICATION_PROTOCOL_DEFINITION ( 'draft international standard', 'automotive_design', 1998, #107 ) ;
#114 = DIRECTION ( 'NONE',  ( 0.000000000000000000, 0.000000000000000000, 1.000000000000000000 ) ) ;
#115 = DIRECTION ( 'NONE',  ( 0.000000000000000000, 0.000000000000000000, 1.000000000000000000 ) ) ;
#116 = LINE ( 'NONE', #4, #29 ) ;
#117 = CARTESIAN_POINT ( 'NONE',  ( -17.50000000000000000, 0.000000000000000000, 9.250000000000000000 ) ) ;
#118 = EDGE_LOOP ( 'NONE', ( #33, #11, #175, #10 ) ) ;
#119 = EDGE_LOOP ( 'NONE', ( #102, #98 ) ) ;
#120 = CARTESIAN_POINT ( 'NONE',  ( 17.50000000000000000, 0.000000000000000000, 0.000000000000000000 ) ) ;
#121 = FACE_OUTER_BOUND ( 'NONE', #196, .T. ) ;
#122 = FACE_BOUND ( 'NONE', #163, .T. ) ;
#123 = EDGE_CURVE ( 'NONE', #5, #26, #35, .T. ) ;
#124 = EDGE_CURVE ( 'NONE', #131, #178, #14, .T. ) ;
#125 = DIRECTION ( 'NONE',  ( -1.000000000000000000, -0.000000000000000000, -0.000000000000000000 ) ) ;
#126 = DIRECTION ( 'NONE',  ( 0.000000000000000000, 0.000000000000000000, 1.000000000000000000 ) ) ;
#127 = FACE_OUTER_BOUND ( 'NONE', #46, .T. ) ;
#128 = AXIS2_PLACEMENT_3D ( 'NONE', #172, #159, #130 ) ;
#129 = ORIENTED_EDGE ( 'NONE', *, *, #23, .T. ) ;
#130 = DIRECTION ( 'NONE',  ( 0.000000000000000000, 0.000000000000000000, 1.000000000000000000 ) ) ;
#131 = VERTEX_POINT ( 'NONE', #17 ) ;
#132 = ORIENTED_EDGE ( 'NONE', *, *, #168, .T. ) ;
#133 = EDGE_CURVE ( 'NONE', #8, #75, #198, .T. ) ;
#134 = CARTESIAN_POINT ( 'NONE',  ( -17.50000000000000000, 0.000000000000000000, 0.000000000000000000 ) ) ;
#135 = VECTOR ( 'NONE', #22, 1000.000000000000000 ) ;
#136 = AXIS2_PLACEMENT_3D ( 'NONE', #192, #42, #87 ) ;
#137 = PRODUCT_DEFINITION_SHAPE ( 'NONE', 'NONE',  #143 ) ;
#138 = AXIS2_PLACEMENT_3D ( 'NONE', #49, #105, #65 ) ;
#139 = CARTESIAN_POINT ( 'NONE',  ( 17.50000000000000000, 1.132798289211301698E-15, -9.250000000000000000 ) ) ;
#140 = CARTESIAN_POINT ( 'NONE',  ( -17.50000000000000000, 0.000000000000000000, 0.000000000000000000 ) ) ;
#141 = PRODUCT_DEFINITION_FORMATION_WITH_SPECIFIED_SOURCE ( 'ANY', '', #66, .NOT_KNOWN. ) ;
#142 = SURFACE_SIDE_STYLE ('',( #69 ) ) ;
#143 = PRODUCT_DEFINITION ( 'UNKNOWN', '', #141, #169 ) ;
#144 = SURFACE_STYLE_USAGE ( .BOTH. , #142 ) ;
#145 = VECTOR ( 'NONE', #176, 1000.000000000000000 ) ;
#146 =( NAMED_UNIT ( * ) PLANE_ANGLE_UNIT ( ) SI_UNIT ( $, .RADIAN. ) );
#147 = FACE_OUTER_BOUND ( 'NONE', #103, .T. ) ;
#148 = ADVANCED_FACE ( 'NONE', ( #92 ), #171, .F. ) ;
#149 = ORIENTED_EDGE ( 'NONE', *, *, #53, .T. ) ;
#150 = DIRECTION ( 'NONE',  ( -1.000000000000000000, -0.000000000000000000, -0.000000000000000000 ) ) ;
#151 = CARTESIAN_POINT ( 'NONE',  ( -17.50000000000000000, 0.000000000000000000, 0.000000000000000000 ) ) ;
#152 = CARTESIAN_POINT ( 'NONE',  ( -17.50000000000000000, 0.000000000000000000, 9.250000000000000000 ) ) ;
#153 = ADVANCED_FACE ( 'NONE', ( #38, #122 ), #187, .F. ) ;
#154 = STYLED_ITEM ( 'NONE', ( #93 ), #185 ) ;
#155 = DIRECTION ( 'NONE',  ( 0.000000000000000000, 0.000000000000000000, 1.000000000000000000 ) ) ;
#156 = DIRECTION ( 'NONE',  ( -1.000000000000000000, -0.000000000000000000, -0.000000000000000000 ) ) ;
#157 = DIRECTION ( 'NONE',  ( -1.000000000000000000, -0.000000000000000000, -0.000000000000000000 ) ) ;
#158 = LINE ( 'NONE', #9, #135 ) ;
#159 = DIRECTION ( 'NONE',  ( -1.000000000000000000, -0.000000000000000000, -0.000000000000000000 ) ) ;
#160 = CIRCLE ( 'NONE', #80, 9.250000000000000000 ) ;
#161 = ORIENTED_EDGE ( 'NONE', *, *, #123, .F. ) ;
#162 = EDGE_CURVE ( 'NONE', #180, #26, #160, .T. ) ;
#163 = EDGE_LOOP ( 'NONE', ( #132, #129 ) ) ;
#164 = ORIENTED_EDGE ( 'NONE', *, *, #73, .T. ) ;
#165 = AXIS2_PLACEMENT_3D ( 'NONE', #81, #18, #3 ) ;
#166 = UNCERTAINTY_MEASURE_WITH_UNIT (LENGTH_MEASURE( 1.000000000000000082E-05 ), #59, 'distance_accuracy_value', 'NONE');
#167 = DIRECTION ( 'NONE',  ( -1.000000000000000000, -0.000000000000000000, -0.000000000000000000 ) ) ;
#168 = EDGE_CURVE ( 'NONE', #5, #195, #50, .T. ) ;
#169 = PRODUCT_DEFINITION_CONTEXT ( 'detailed design', #83, 'design' ) ;
#170 = CARTESIAN_POINT ( 'NONE',  ( 17.50000000000000000, 0.000000000000000000, 11.15000000000000036 ) ) ;
#171 = CYLINDRICAL_SURFACE ( 'NONE', #89, 9.250000000000000000 ) ;
#172 = CARTESIAN_POINT ( 'NONE',  ( -17.50000000000000000, 0.000000000000000000, 0.000000000000000000 ) ) ;
#173 = ORIENTED_EDGE ( 'NONE', *, *, #168, .F. ) ;
#174 = AXIS2_PLACEMENT_3D ( 'NONE', #177, #194, #24 ) ;
#175 = ORIENTED_EDGE ( 'NONE', *, *, #133, .F. ) ;
#176 = DIRECTION ( 'NONE',  ( -1.000000000000000000, -0.000000000000000000, -0.000000000000000000 ) ) ;
#177 = CARTESIAN_POINT ( 'NONE',  ( 0.000000000000000000, 0.000000000000000000, 0.000000000000000000 ) ) ;
#178 = VERTEX_POINT ( 'NONE', #170 ) ;
#179 = PRESENTATION_LAYER_ASSIGNMENT (  '', '', ( #154 ) ) ;
#180 = VERTEX_POINT ( 'NONE', #2 ) ;
#181 = DIRECTION ( 'NONE',  ( 0.000000000000000000, 0.000000000000000000, 1.000000000000000000 ) ) ;
#182 = CARTESIAN_POINT ( 'NONE',  ( 17.50000000000000000, 0.000000000000000000, 0.000000000000000000 ) ) ;
#183 = EDGE_CURVE ( 'NONE', #178, #131, #99, .T. ) ;
#184 = DIRECTION ( 'NONE',  ( 0.000000000000000000, 0.000000000000000000, 1.000000000000000000 ) ) ;
#185 = MANIFOLD_SOLID_BREP ( 'Rotation1', #112 ) ;
#186 = AXIS2_PLACEMENT_3D ( 'NONE', #182, #39, #54 ) ;
#187 = PLANE ( 'NONE',  #190 ) ;
#188 =( NAMED_UNIT ( * ) SI_UNIT ( $, .STERADIAN. ) SOLID_ANGLE_UNIT ( ) );
#189 = DIRECTION ( 'NONE',  ( -1.000000000000000000, -0.000000000000000000, -0.000000000000000000 ) ) ;
#190 = AXIS2_PLACEMENT_3D ( 'NONE', #71, #109, #68 ) ;
#191 = ORIENTED_EDGE ( 'NONE', *, *, #53, .F. ) ;
#192 = CARTESIAN_POINT ( 'NONE',  ( -17.50000000000000000, 0.000000000000000000, 0.000000000000000000 ) ) ;
#193 = ORIENTED_EDGE ( 'NONE', *, *, #124, .T. ) ;
#194 = DIRECTION ( 'NONE',  ( 0.000000000000000000, 0.000000000000000000, 1.000000000000000000 ) ) ;
#195 = VERTEX_POINT ( 'NONE', #139 ) ;
#196 = EDGE_LOOP ( 'NONE', ( #43, #149 ) ) ;
#197 = FACE_BOUND ( 'NONE', #62, .T. ) ;
#198 = CIRCLE ( 'NONE', #165, 11.15000000000000036 ) ;
#199 = AXIS2_PLACEMENT_3D ( 'NONE', #88, #150, #115 ) ;
ENDSEC;
END-ISO-10303-21;
