ISO-10303-21;
HEADER;
FILE_DESCRIPTION (( 'STEP AP214' ),
    '1' );
FILE_NAME ('2046522.STEP',
    '2025-02-13T14:35:20',
    ( '' ),
    ( '' ),
    'SwSTEP 2.0',
    'SolidWorks 2024',
    '' );
FILE_SCHEMA (( 'AUTOMOTIVE_DESIGN' ));
ENDSEC;

DATA;
#1 = DIRECTION ( 'NONE',  ( 0.000000000000000000, 0.000000000000000000, -1.000000000000000000 ) ) ;
#2 = FILL_AREA_STYLE_COLOUR ( '', #194 ) ;
#3 = VERTEX_POINT ( 'NONE', #116 ) ;
#4 = EDGE_LOOP ( 'NONE', ( #191, #135 ) ) ;
#5 = ADVANCED_FACE ( 'NONE', ( #6 ), #37, .T. ) ;
#6 = FACE_OUTER_BOUND ( 'NONE', #23, .T. ) ;
#7 = DIRECTION ( 'NONE',  ( 0.000000000000000000, 0.000000000000000000, 1.000000000000000000 ) ) ;
#8 = VERTEX_POINT ( 'NONE', #14 ) ;
#9 = AXIS2_PLACEMENT_3D ( 'NONE', #122, #46, #149 ) ;
#10 = AXIS2_PLACEMENT_3D ( 'NONE', #139, #92, #179 ) ;
#11 = DIRECTION ( 'NONE',  ( -0.000000000000000000, 0.000000000000000000, 1.000000000000000000 ) ) ;
#12 = CARTESIAN_POINT ( 'NONE',  ( -16.00000000000000000, 0.000000000000000000, 0.000000000000000000 ) ) ;
#13 = PRESENTATION_LAYER_ASSIGNMENT (  '', '', ( #77 ) ) ;
#14 = CARTESIAN_POINT ( 'NONE',  ( 16.00000000000000000, 0.000000000000000000, 9.150000000000000355 ) ) ;
#15 = DIRECTION ( 'NONE',  ( -1.000000000000000000, -0.000000000000000000, -0.000000000000000000 ) ) ;
#16 = VERTEX_POINT ( 'NONE', #109 ) ;
#17 = PRODUCT_DEFINITION_CONTEXT ( 'detailed design', #52, 'design' ) ;
#18 = CIRCLE ( 'NONE', #160, 9.150000000000000355 ) ;
#19 = ADVANCED_FACE ( 'NONE', ( #62, #97 ), #155, .F. ) ;
#20 = CLOSED_SHELL ( 'NONE', ( #199, #130, #19, #95, #188, #5 ) ) ;
#21 = DIRECTION ( 'NONE',  ( -1.000000000000000000, -0.000000000000000000, -0.000000000000000000 ) ) ;
#22 = EDGE_LOOP ( 'NONE', ( #174, #133, #55, #89 ) ) ;
#23 = EDGE_LOOP ( 'NONE', ( #72, #157, #84, #70 ) ) ;
#24 = EDGE_CURVE ( 'NONE', #82, #147, #29, .T. ) ;
#25 = DIRECTION ( 'NONE',  ( -1.000000000000000000, -0.000000000000000000, -0.000000000000000000 ) ) ;
#26 = FACE_OUTER_BOUND ( 'NONE', #68, .T. ) ;
#27 =( NAMED_UNIT ( * ) PLANE_ANGLE_UNIT ( ) SI_UNIT ( $, .RADIAN. ) );
#28 = CARTESIAN_POINT ( 'NONE',  ( -16.00000000000000000, 9.150000000000000355, 0.000000000000000000 ) ) ;
#29 = CIRCLE ( 'NONE', #86, 9.150000000000000355 ) ;
#30 = DIRECTION ( 'NONE',  ( -1.000000000000000000, -0.000000000000000000, -0.000000000000000000 ) ) ;
#31 = ORIENTED_EDGE ( 'NONE', *, *, #43, .T. ) ;
#32 = APPLICATION_PROTOCOL_DEFINITION ( 'draft international standard', 'automotive_design', 1998, #52 ) ;
#33 = EDGE_CURVE ( 'NONE', #3, #16, #128, .T. ) ;
#34 = ADVANCED_BREP_SHAPE_REPRESENTATION ( '2046522', ( #54, #125 ), #94 ) ;
#35 = CIRCLE ( 'NONE', #192, 9.150000000000000355 ) ;
#36 = SHAPE_DEFINITION_REPRESENTATION ( #79, #34 ) ;
#37 = CYLINDRICAL_SURFACE ( 'NONE', #140, 9.150000000000000355 ) ;
#38 = DIRECTION ( 'NONE',  ( -1.000000000000000000, -0.000000000000000000, -0.000000000000000000 ) ) ;
#39 = DIRECTION ( 'NONE',  ( -1.000000000000000000, -0.000000000000000000, -0.000000000000000000 ) ) ;
#40 = EDGE_CURVE ( 'NONE', #58, #82, #49, .T. ) ;
#41 = FACE_OUTER_BOUND ( 'NONE', #66, .T. ) ;
#42 = DIRECTION ( 'NONE',  ( -1.000000000000000000, -0.000000000000000000, -0.000000000000000000 ) ) ;
#43 = EDGE_CURVE ( 'NONE', #161, #145, #98, .T. ) ;
#44 =( NAMED_UNIT ( * ) SI_UNIT ( $, .STERADIAN. ) SOLID_ANGLE_UNIT ( ) );
#45 = DIRECTION ( 'NONE',  ( 0.000000000000000000, 0.000000000000000000, 1.000000000000000000 ) ) ;
#46 = DIRECTION ( 'NONE',  ( -1.000000000000000000, -0.000000000000000000, -0.000000000000000000 ) ) ;
#47 = AXIS2_PLACEMENT_3D ( 'NONE', #12, #25, #75 ) ;
#48 = DIRECTION ( 'NONE',  ( -1.000000000000000000, -0.000000000000000000, -0.000000000000000000 ) ) ;
#49 = LINE ( 'NONE', #111, #114 ) ;
#50 = ORIENTED_EDGE ( 'NONE', *, *, #115, .T. ) ;
#51 = APPLICATION_PROTOCOL_DEFINITION ( 'draft international standard', 'automotive_design', 1998, #57 ) ;
#52 = APPLICATION_CONTEXT ( 'automotive_design' ) ;
#53 = DIRECTION ( 'NONE',  ( 1.000000000000000000, 0.000000000000000000, 0.000000000000000000 ) ) ;
#54 = MANIFOLD_SOLID_BREP ( 'Rotation1', #20 ) ;
#55 = ORIENTED_EDGE ( 'NONE', *, *, #33, .T. ) ;
#56 = DIRECTION ( 'NONE',  ( -1.000000000000000000, -0.000000000000000000, -0.000000000000000000 ) ) ;
#57 = APPLICATION_CONTEXT ( 'automotive_design' ) ;
#58 = VERTEX_POINT ( 'NONE', #69 ) ;
#59 = DIRECTION ( 'NONE',  ( -1.000000000000000000, -0.000000000000000000, -0.000000000000000000 ) ) ;
#60 = CARTESIAN_POINT ( 'NONE',  ( -16.00000000000000000, 0.000000000000000000, 0.000000000000000000 ) ) ;
#61 = CYLINDRICAL_SURFACE ( 'NONE', #9, 9.150000000000000355 ) ;
#62 = FACE_BOUND ( 'NONE', #163, .T. ) ;
#63 = DIRECTION ( 'NONE',  ( 0.000000000000000000, 0.000000000000000000, 1.000000000000000000 ) ) ;
#64 = EDGE_CURVE ( 'NONE', #3, #161, #96, .T. ) ;
#65 = FILL_AREA_STYLE ('',( #2 ) ) ;
#66 = EDGE_LOOP ( 'NONE', ( #143, #176 ) ) ;
#67 = AXIS2_PLACEMENT_3D ( 'NONE', #121, #42, #45 ) ;
#68 = EDGE_LOOP ( 'NONE', ( #101, #31, #186, #87 ) ) ;
#69 = CARTESIAN_POINT ( 'NONE',  ( 16.00000000000000000, 1.120551821219828341E-15, -9.150000000000000355 ) ) ;
#70 = ORIENTED_EDGE ( 'NONE', *, *, #24, .F. ) ;
#71 = CARTESIAN_POINT ( 'NONE',  ( 16.00000000000000000, 0.000000000000000000, 0.000000000000000000 ) ) ;
#72 = ORIENTED_EDGE ( 'NONE', *, *, #40, .F. ) ;
#73 = VECTOR ( 'NONE', #59, 1000.000000000000000 ) ;
#74 = DIRECTION ( 'NONE',  ( 0.000000000000000000, 0.000000000000000000, 1.000000000000000000 ) ) ;
#75 = DIRECTION ( 'NONE',  ( 0.000000000000000000, 0.000000000000000000, 1.000000000000000000 ) ) ;
#76 = FACE_OUTER_BOUND ( 'NONE', #189, .T. ) ;
#77 = STYLED_ITEM ( 'NONE', ( #78 ), #54 ) ;
#78 = PRESENTATION_STYLE_ASSIGNMENT (( #154 ) ) ;
#79 = PRODUCT_DEFINITION_SHAPE ( 'NONE', 'NONE',  #80 ) ;
#80 = PRODUCT_DEFINITION ( 'UNKNOWN', '', #159, #17 ) ;
#81 = CARTESIAN_POINT ( 'NONE',  ( -16.00000000000000000, 8.878689293818310074E-16, -7.250000000000000000 ) ) ;
#82 = VERTEX_POINT ( 'NONE', #134 ) ;
#83 = PRODUCT ( '2046522', '2046522', '', ( #100 ) ) ;
#84 = ORIENTED_EDGE ( 'NONE', *, *, #164, .T. ) ;
#85 = AXIS2_PLACEMENT_3D ( 'NONE', #124, #93, #152 ) ;
#86 = AXIS2_PLACEMENT_3D ( 'NONE', #171, #15, #63 ) ;
#87 = ORIENTED_EDGE ( 'NONE', *, *, #33, .F. ) ;
#88 = DIRECTION ( 'NONE',  ( 0.000000000000000000, 0.000000000000000000, 1.000000000000000000 ) ) ;
#89 = ORIENTED_EDGE ( 'NONE', *, *, #150, .T. ) ;
#90 = EDGE_LOOP ( 'NONE', ( #172, #112 ) ) ;
#91 = CARTESIAN_POINT ( 'NONE',  ( 16.00000000000000000, 9.150000000000000355, 0.000000000000000000 ) ) ;
#92 = DIRECTION ( 'NONE',  ( -1.000000000000000000, -0.000000000000000000, -0.000000000000000000 ) ) ;
#93 = DIRECTION ( 'NONE',  ( -1.000000000000000000, -0.000000000000000000, -0.000000000000000000 ) ) ;
#94 =( GEOMETRIC_REPRESENTATION_CONTEXT ( 3 ) GLOBAL_UNCERTAINTY_ASSIGNED_CONTEXT ( ( #156 ) ) GLOBAL_UNIT_ASSIGNED_CONTEXT ( ( #180, #27, #44 ) ) REPRESENTATION_CONTEXT ( 'NONE', 'WORKASPACE' ) );
#95 = ADVANCED_FACE ( 'NONE', ( #117 ), #104, .F. ) ;
#96 = CIRCLE ( 'NONE', #120, 7.250000000000000000 ) ;
#97 = FACE_OUTER_BOUND ( 'NONE', #90, .T. ) ;
#98 = LINE ( 'NONE', #81, #153 ) ;
#99 = ORIENTED_EDGE ( 'NONE', *, *, #150, .F. ) ;
#100 = PRODUCT_CONTEXT ( 'NONE', #57, 'mechanical' ) ;
#101 = ORIENTED_EDGE ( 'NONE', *, *, #183, .F. ) ;
#102 = CIRCLE ( 'NONE', #10, 9.150000000000000355 ) ;
#103 = ORIENTED_EDGE ( 'NONE', *, *, #164, .F. ) ;
#104 = CYLINDRICAL_SURFACE ( 'NONE', #127, 7.250000000000000000 ) ;
#105 = DIRECTION ( 'NONE',  ( 0.000000000000000000, 0.000000000000000000, 1.000000000000000000 ) ) ;
#106 = MECHANICAL_DESIGN_GEOMETRIC_PRESENTATION_REPRESENTATION (  '', ( #77 ), #177 ) ;
#107 = DIRECTION ( 'NONE',  ( 0.000000000000000000, 0.000000000000000000, 1.000000000000000000 ) ) ;
#108 = FACE_BOUND ( 'NONE', #4, .T. ) ;
#109 = CARTESIAN_POINT ( 'NONE',  ( -16.00000000000000000, 0.000000000000000000, 7.250000000000000000 ) ) ;
#110 = CIRCLE ( 'NONE', #67, 7.250000000000000000 ) ;
#111 = CARTESIAN_POINT ( 'NONE',  ( -16.00000000000000000, 1.120551821219828341E-15, -9.150000000000000355 ) ) ;
#112 = ORIENTED_EDGE ( 'NONE', *, *, #24, .T. ) ;
#113 = ORIENTED_EDGE ( 'NONE', *, *, #119, .F. ) ;
#114 = VECTOR ( 'NONE', #30, 1000.000000000000000 ) ;
#115 = EDGE_CURVE ( 'NONE', #8, #58, #35, .T. ) ;
#116 = CARTESIAN_POINT ( 'NONE',  ( 16.00000000000000000, 0.000000000000000000, 7.250000000000000000 ) ) ;
#117 = FACE_OUTER_BOUND ( 'NONE', #22, .T. ) ;
#118 = CARTESIAN_POINT ( 'NONE',  ( -16.00000000000000000, 0.000000000000000000, 0.000000000000000000 ) ) ;
#119 = EDGE_CURVE ( 'NONE', #147, #82, #18, .T. ) ;
#120 = AXIS2_PLACEMENT_3D ( 'NONE', #142, #38, #88 ) ;
#121 = CARTESIAN_POINT ( 'NONE',  ( 16.00000000000000000, 0.000000000000000000, 0.000000000000000000 ) ) ;
#122 = CARTESIAN_POINT ( 'NONE',  ( -16.00000000000000000, 0.000000000000000000, 0.000000000000000000 ) ) ;
#123 = DIRECTION ( 'NONE',  ( -1.000000000000000000, -0.000000000000000000, -0.000000000000000000 ) ) ;
#124 = CARTESIAN_POINT ( 'NONE',  ( -16.00000000000000000, 0.000000000000000000, 0.000000000000000000 ) ) ;
#125 = AXIS2_PLACEMENT_3D ( 'NONE', #195, #197, #53 ) ;
#126 = CARTESIAN_POINT ( 'NONE',  ( -16.00000000000000000, 0.000000000000000000, 7.250000000000000000 ) ) ;
#127 = AXIS2_PLACEMENT_3D ( 'NONE', #190, #56, #7 ) ;
#128 = LINE ( 'NONE', #126, #187 ) ;
#129 = ORIENTED_EDGE ( 'NONE', *, *, #40, .T. ) ;
#130 = ADVANCED_FACE ( 'NONE', ( #26 ), #167, .F. ) ;
#131 =( LENGTH_UNIT ( ) NAMED_UNIT ( * ) SI_UNIT ( .MILLI., .METRE. ) );
#132 = PRODUCT_RELATED_PRODUCT_CATEGORY ( 'part', '', ( #83 ) ) ;
#133 = ORIENTED_EDGE ( 'NONE', *, *, #64, .F. ) ;
#134 = CARTESIAN_POINT ( 'NONE',  ( -16.00000000000000000, 1.120551821219828341E-15, -9.150000000000000355 ) ) ;
#135 = ORIENTED_EDGE ( 'NONE', *, *, #183, .T. ) ;
#136 = CIRCLE ( 'NONE', #85, 7.250000000000000000 ) ;
#137 = CIRCLE ( 'NONE', #47, 7.250000000000000000 ) ;
#138 = CARTESIAN_POINT ( 'NONE',  ( -16.00000000000000000, 8.878689293818310074E-16, -7.250000000000000000 ) ) ;
#139 = CARTESIAN_POINT ( 'NONE',  ( 16.00000000000000000, 0.000000000000000000, 0.000000000000000000 ) ) ;
#140 = AXIS2_PLACEMENT_3D ( 'NONE', #118, #39, #105 ) ;
#141 = DIRECTION ( 'NONE',  ( 1.000000000000000000, 0.000000000000000000, 0.000000000000000000 ) ) ;
#142 = CARTESIAN_POINT ( 'NONE',  ( 16.00000000000000000, 0.000000000000000000, 0.000000000000000000 ) ) ;
#143 = ORIENTED_EDGE ( 'NONE', *, *, #115, .F. ) ;
#144 = UNCERTAINTY_MEASURE_WITH_UNIT (LENGTH_MEASURE( 1.000000000000000082E-05 ), #131, 'distance_accuracy_value', 'NONE');
#145 = VERTEX_POINT ( 'NONE', #138 ) ;
#146 = CARTESIAN_POINT ( 'NONE',  ( -16.00000000000000000, 0.000000000000000000, 0.000000000000000000 ) ) ;
#147 = VERTEX_POINT ( 'NONE', #151 ) ;
#148 = DIRECTION ( 'NONE',  ( -1.000000000000000000, 0.000000000000000000, -0.000000000000000000 ) ) ;
#149 = DIRECTION ( 'NONE',  ( 0.000000000000000000, 0.000000000000000000, 1.000000000000000000 ) ) ;
#150 = EDGE_CURVE ( 'NONE', #16, #145, #137, .T. ) ;
#151 = CARTESIAN_POINT ( 'NONE',  ( -16.00000000000000000, 0.000000000000000000, 9.150000000000000355 ) ) ;
#152 = DIRECTION ( 'NONE',  ( 0.000000000000000000, 0.000000000000000000, 1.000000000000000000 ) ) ;
#153 = VECTOR ( 'NONE', #48, 1000.000000000000000 ) ;
#154 = SURFACE_STYLE_USAGE ( .BOTH. , #169 ) ;
#155 = PLANE ( 'NONE',  #170 ) ;
#156 = UNCERTAINTY_MEASURE_WITH_UNIT (LENGTH_MEASURE( 1.000000000000000082E-05 ), #180, 'distance_accuracy_value', 'NONE');
#157 = ORIENTED_EDGE ( 'NONE', *, *, #166, .T. ) ;
#158 =( NAMED_UNIT ( * ) PLANE_ANGLE_UNIT ( ) SI_UNIT ( $, .RADIAN. ) );
#159 = PRODUCT_DEFINITION_FORMATION_WITH_SPECIFIED_SOURCE ( 'ANY', '', #83, .NOT_KNOWN. ) ;
#160 = AXIS2_PLACEMENT_3D ( 'NONE', #146, #21, #107 ) ;
#161 = VERTEX_POINT ( 'NONE', #165 ) ;
#162 = DIRECTION ( 'NONE',  ( 0.000000000000000000, 0.000000000000000000, 1.000000000000000000 ) ) ;
#163 = EDGE_LOOP ( 'NONE', ( #99, #185 ) ) ;
#164 = EDGE_CURVE ( 'NONE', #8, #147, #193, .T. ) ;
#165 = CARTESIAN_POINT ( 'NONE',  ( 16.00000000000000000, 8.878689293818310074E-16, -7.250000000000000000 ) ) ;
#166 = EDGE_CURVE ( 'NONE', #58, #8, #102, .T. ) ;
#167 = CYLINDRICAL_SURFACE ( 'NONE', #182, 7.250000000000000000 ) ;
#168 = AXIS2_PLACEMENT_3D ( 'NONE', #91, #148, #11 ) ;
#169 = SURFACE_SIDE_STYLE ('',( #181 ) ) ;
#170 = AXIS2_PLACEMENT_3D ( 'NONE', #28, #141, #1 ) ;
#171 = CARTESIAN_POINT ( 'NONE',  ( -16.00000000000000000, 0.000000000000000000, 0.000000000000000000 ) ) ;
#172 = ORIENTED_EDGE ( 'NONE', *, *, #119, .T. ) ;
#173 =( NAMED_UNIT ( * ) SI_UNIT ( $, .STERADIAN. ) SOLID_ANGLE_UNIT ( ) );
#174 = ORIENTED_EDGE ( 'NONE', *, *, #43, .F. ) ;
#175 = DIRECTION ( 'NONE',  ( -1.000000000000000000, -0.000000000000000000, -0.000000000000000000 ) ) ;
#176 = ORIENTED_EDGE ( 'NONE', *, *, #166, .F. ) ;
#177 =( GEOMETRIC_REPRESENTATION_CONTEXT ( 3 ) GLOBAL_UNCERTAINTY_ASSIGNED_CONTEXT ( ( #144 ) ) GLOBAL_UNIT_ASSIGNED_CONTEXT ( ( #131, #158, #173 ) ) REPRESENTATION_CONTEXT ( 'NONE', 'WORKASPACE' ) );
#178 = PLANE ( 'NONE',  #168 ) ;
#179 = DIRECTION ( 'NONE',  ( 0.000000000000000000, 0.000000000000000000, 1.000000000000000000 ) ) ;
#180 =( LENGTH_UNIT ( ) NAMED_UNIT ( * ) SI_UNIT ( .MILLI., .METRE. ) );
#181 = SURFACE_STYLE_FILL_AREA ( #65 ) ;
#182 = AXIS2_PLACEMENT_3D ( 'NONE', #60, #123, #74 ) ;
#183 = EDGE_CURVE ( 'NONE', #161, #3, #110, .T. ) ;
#184 = DIRECTION ( 'NONE',  ( -1.000000000000000000, -0.000000000000000000, -0.000000000000000000 ) ) ;
#185 = ORIENTED_EDGE ( 'NONE', *, *, #198, .F. ) ;
#186 = ORIENTED_EDGE ( 'NONE', *, *, #198, .T. ) ;
#187 = VECTOR ( 'NONE', #184, 1000.000000000000000 ) ;
#188 = ADVANCED_FACE ( 'NONE', ( #41, #108 ), #178, .F. ) ;
#189 = EDGE_LOOP ( 'NONE', ( #50, #129, #113, #103 ) ) ;
#190 = CARTESIAN_POINT ( 'NONE',  ( -16.00000000000000000, 0.000000000000000000, 0.000000000000000000 ) ) ;
#191 = ORIENTED_EDGE ( 'NONE', *, *, #64, .T. ) ;
#192 = AXIS2_PLACEMENT_3D ( 'NONE', #71, #175, #162 ) ;
#193 = LINE ( 'NONE', #196, #73 ) ;
#194 = COLOUR_RGB ( '',0.7921568627450980005, 0.8196078431372548767, 0.9333333333333333481 ) ;
#195 = CARTESIAN_POINT ( 'NONE',  ( 0.000000000000000000, 0.000000000000000000, 0.000000000000000000 ) ) ;
#196 = CARTESIAN_POINT ( 'NONE',  ( -16.00000000000000000, 0.000000000000000000, 9.150000000000000355 ) ) ;
#197 = DIRECTION ( 'NONE',  ( 0.000000000000000000, 0.000000000000000000, 1.000000000000000000 ) ) ;
#198 = EDGE_CURVE ( 'NONE', #145, #16, #136, .T. ) ;
#199 = ADVANCED_FACE ( 'NONE', ( #76 ), #61, .T. ) ;
ENDSEC;
END-ISO-10303-21;
